Song name
# A B C D E F G H I J K L M N O P Q R S T U V W X Y Z

Humble Pie - Stone Cold Fever tab

Humble Pie - Stone Cold Fever - from the album, Rock On (1971)

This has two guitars (Marriott and Frampton).
Most of the way they play the same thing together, or variations.
This is how you can play it with one guitar and I've tried to include all the fills.
I may work out the solo later. Let me know if there's any mistakes.

Classic Rock!!!!!

/ = slide
h = hammer-on
p = pull-off
b = bend
~ = let the note(s) ring
The letters above the tablature are the chords


      E        B D A       E        B D A
E----------------------------------------------------------|
B----------------7--------------------7--------------------|
G--9-9-9-9/----8-7-6----9-9-9-9/----8-7-6------------------|
D--9-9-9-9/----9-7-7----9-9-9-9/----9-7-7------------------|
A--7-7-7-7/----9-5-7----7-7-7-7/----9-5-7------------------|
E--0-0-0-0--3/77---5----0-0-0-0--3/77---5------------------|

E----------------------------------------------------------|
B----------------------7--------------12----12------7------|
G--9-9-9-9-----------8-7-6----9-9-9-9-12b13-12b13-8-7-6----|
D--9-9-9-9-----------9-7-7----9-9-9-9-------------9-7-7----|
A--7-7-7-7-5h7p5h7p5-9-5-7----7-7-7-7-------------9-5-7----|
E--0-0-0-0-----------7---5----0-0-0-0-------------7---5----|

E--------------------------------------------------------|
B----------------------7--------------------------7------|
G--9-9-9-9-----------8-7-6----9-9-9-9-----------8-7-6----| This becomes
D--9-9-9-9-----------9-7-7----9-9-9-9-----------9-7-7----| the main riff
A--7-7-7-7-5h7p5h7p5-9-5-7----7-7-7-7-5h7p5h7p5-9-5-7----|
E--0-0-0-0-----------7---5----0-0-0-0-----------7---5----|

Bridge:

E--------------------------------------------------------|
B-------------------------------5-5-5-5-5-3-0------------|
G--------------------------------------------2b3p0-------|
D-------------------------------------------------2-2----|
A--5h7-7-7-7-7-5-----------------------------------------|
E---------------7-3-5-3b-0-------------------------------|


E--------------------------------------------------------------|
B----------------------------17-17-17-17-17-15-12--------------|
G------------------------------------------------14b15p12------|
D--------------------------------------------------------14-14-|
A--5h7-7-7-7-7-5-----------------------------------------------|
E---------------7-3-5-3b-0-------------------------------------|


E-------------------------------------------------------------|
B---------------------------7--------------------------7------|
G-------9-9-9-9-----------8-7-6----9-9-9-9-----------8-7-6----|
D-------9-9-9-9-----------9-7-7----9-9-9-9-----------9-7-7----|
A-7-5---7-7-7-7-5h7p5h7p5-9-5-7----7-7-7-7-5h7p5h7p5-9-5-7----|
E----7--0-0-0-0-----------7---5----0-0-0-0-----------7---5----|


After second bridge, just before the solo:

       E                 G         F#m
E------------------------------------------------------------|
B----------------12-12-12-12-12-12-10------------------------|
G----------------12-12-12-12-12-12-11------------------------|
D----------------12-12-12-12-12-12-11------------------------|
A-7-5--7~~~~~~~--10-10-10-10-10-10-9-------------------------|
E----7-0~~~~~~~----------------------------------------------|


First two notes of the solo, which is played through the E and G chords

E---------------------------------------------------------|
B---------------------------------------------------------|
G---12h14~~-----------------------------------------------|
D---------------------------------------------------------|
A---------------------------------------------------------|
E---------------------------------------------------------|

After harmonica solo:

E---------------------------------------------------------|
B---------------------------------------------------------|
G---------------------------------------------------------|
D-----------------5b---------------------5b---------------|
A---5-6-7-7-7----5--7-7-7---5-6-7-7-7---5--7-7-7----------|
E--7------------7----------7------------------------------|


E---------------------------------------------------|
B-----------12--------------9-----------------------|
G-----------12b13-----------9-----------------------|
D---------------------------------------------------|  x2
A---5-6-7-5---------5-6-7-5-------------------------|
E--7-------7-------7-------7------------------------|


E------------------------------------------------------|
B------------------------------------------------------|
G--------------------0---------------------------------|
D--------------0-1-2--2----x3--------------------------|
A--5-6-7--0-1-2--------1-2-----------------------------|
E-7-----------------------------3b0~~~~~---------------|

            E      E
E------------------------------------------------------|
B------------------------------------------------------|
G---------9-9-9--9-9-9---------------------------------|
D---------9-9-9--9-9-9---------------------------------|
A-----7~--7-7-7--7-7-7---------------------------------|
E--7-5----0-0-0--0-0-0---------------------------------|

During the last verse I can't make out Marriotts' vocals to put to the chords!:

Chords: A, E, A, G, B

Then back to the bridge.

Outro:

       E                 G         F#m
E------------------------------------------------------------|
B----------------12-12-12-12-12-12-10------------------------|
G----------------12-12-12-12-12-12-11------------------------|
D----------------12-12-12-12-12-12-11------------------------|
A-7-5--7~~~~~~~--10-10-10-10-10-10-9-------------------------|
E----7-0~~~~~~~----------------------------------------------|

End.

I hope this helps! If someone fancies tabbing the solo that would be great!
Tap to rate this tab
# A B C D E F G H I J K L M N O P Q R S T U V W X Y Z