Song name
# A B C D E F G H I J K L M N O P Q R S T U V W X Y Z

Hunter Hayes - Wanted chords

Highlighted       Show chord diagrams
Wanted - Hunter Hayes
Standard Tuning
Capo at 5th

I tried to get the right chords here so fingers crossed. There were some tricky parts 
and Im still new. Let me know if you have any improvement suggestions. I took out the 
larger solos, but there are more in there.

This version is dedicated to Kenny. Youll always be wanted. <3


Chord Chart
   Am  C   Em  G   D   G*
e|-0---0---0---3---2---3-|
B|-1---1---0---3---3---0-|
G|-2---0---0---0---2---0-|
D|-2---2---2---0---0---0-|
A|-0---3---2---2---x---2-|
E|-x---x---0---3---x---3-|

*Use this G if the other is too difficult. The other sounds better, but this will work 
all the same.


Piano Solo in the background (repeat)

e |-----3--------3-------3-------3--------|
B |---3---3---3----3---3---3---3---3------|
G |-0-------0--------0-------0-------0----|
D |---------------------------------------|
A |---------------------------------------|
E |---------------------------------------|

Guitar Into Solo (the last half of this solo is used throughout the song as well.)
e |--------------------------------------------------------|
B |--------------------------------------------------------|
G |-----------------4-4--------------------------4h5-4-----|
D |-/5-/12-\5----/5-----7-5----/5-/12-\5----/5-7-------0---|
A |--------------------------------------------------------|
E |--------------------------------------------------------|



G            D              Em  C
You know I'd fall apart without you
G                    D           Em  C
I don't know how you do what you do
G                        D               Em   C
'Cause everything that don't make sense about me
G              	  D        C
Makes sense when I'm with you

G                      D              Em	 C
Like everything that's green, girl I need you
         G                 D         Em    C
But it's more than one and one makes two
G             D            Em	   C
Put aside the math and the logic of it
G             	    D       C
You gotta know you want it too

	       G
'Cause I wanna wrap you up
      D
Wanna kiss your lips
  Em                  C
I wanna make you feel wanted
            G
And I wanna call you mine
      D			  Em
Wanna hold your hand for-ever
                  C
Never let you for-get it
        G      D             C
Yeah, I  wanna make you feel wanted

G          D               Em      C
Anyone can tell you you're pretty  (Yeah)
G            D           Em  C
You get that all the time, I know you do
G            	   D               Em     C
But your beauty's deeper than the makeup
G           D               C
And I wanna show you what I see tonight

       G
When I wrap you up
       D
When I kiss your lips
  Em                  C
I wanna make you feel wanted
	    G
And I wanna call you mine
D                        Em
Wanna hold your hand for-ever
                  C
Never let you for-get it
              G     D       	   C
'Cause baby I wanna make you feel wanted

Am
As good as you make me feel
C		       Em
I wanna make you feel better
Am
Better than your fairy tales
Em
Better than your best dreams
G                             D
You're more than everything I need
                  G     D
You're all I ever wanted
           G    C
All I ever wanted

Small Solo
e |-------------------|
B |-------------------|
G |---/9-/11-12-------|
D |-------------------|
A |-------------------|
E |-------------------|

                 G
And I just wanna wrap you up
      D
Wanna kiss your lips
  Em                  C
I wanna make you feel wanted
            G
And I wanna call you mine
      D			  Em
Wanna hold your hand for-ever
                  C
Never let you for-get it
	G     D		     C
Yeah, I wanna make you feel wanted
	     G     D     	   C
Yeah, baby I wanna make you feel -Wanted'


	     C         G
Cause you'll always be wanted

Index
x  Dont play this string
h  Hammer on
/ - Slide up
\ - Slide down
Tap to rate this tab
# A B C D E F G H I J K L M N O P Q R S T U V W X Y Z