Song name
# A B C D E F G H I J K L M N O P Q R S T U V W X Y Z

Hunter Hayes - Somebodys Heartbreak tab

Capo 3

Intro (Lead)

e|-----3h5--------3h5/7\5---------------------------|
B|---3----------3----------------------3/5-----\3---|
G|-----------------------------------2--------------|
D|---------------------------------0----------------|
A|--------------------------------------------------|
E|--------------------------------------------------|

Intro (Rhythm)

G C x2

Verse (Rhythm)

G                                       C
Well I'd love to know just what you're thinkin'

G                                       C
Every little river, running through your mind

G
You give and you take, you come and you go

C
You leave me here wondering if I'll ever know

Em
How much you care, or how much you don't

e|-(0)-----(0)------(0)-----(0)---------------------|
B|--3-------3--------3-------3----------------------|
G|--0-------0--------0-------2----------------------|
D|--2-------0--------2-------0----------------------|
A|--0-------2--------3-------0----------------------|
E|--------------------------------------------------|
                                        
Whatever you need, whatever you want

Chorus (Rhythm)

G
If you're gonna be somebody's heartbreak,

C
If you're gonna be somebody's mistake,

Em
If you're gonna be somebody's first time, 

(it sounds good to repeat the above four chord pattern here)
Somebody's last time, baby be mine

G
If you're lookin' to be somebody's just friends,

C
A little laughin', a little lovin', never callin' again,

Em
That's just fine

C
If you're gonna be somebody's heartbreak, be mine

Post-Chorus (Lead)

e|------------------------------------------|
B|----/9---3---0------------/9---3---1------|
G|------------------------------------------|
D|------------------------------------------|
A|------------------------------------------|
E|------------------------------------------|


e|-------------------------------------10---|
B|----/9---3---0------------/12---8---------|
G|------------------------------------11----|
D|------------------------------------------|
A|------------------------------------------|
E|------------------------------------------|


G C x2

G                                       C
Well I guess that all I'm trying to tell you 


e|-------------------------------------------------|
B|-------------------------------------------------|
G|---------------------------7h9h7--5h4---2h0------|
D|-------------------------------------------------|
A|-------------------------------------------------|
E|-------------------------------------------------|

G                                       C
Is a minute with you, is better than two without

G
Oooh I won't be a fool, but I can't play cool

C
So I'm playin' it safe and breakin' the rules

Em
Yeah, I'm wishin' I had what i know that you got,

e|---(0)-------(0)---------(0)--------(0)-----------|
B|----3---------3-----------3----------3------------|
G|----0---------0-----------0----------2------------|
D|----2---------0-----------2----------0------------|
A|----0---------2-----------3----------0------------|
E|--------------------------------------------------|

So if you're comin' my way, please don't stop

Chorus

Solo
G C x2

G
But if you're gonna be somebody's heartbreak,

C
or somebody's mistake,

Em
Somebody's first time, or their last time, 

D
Baby, be mine

Chorus

Outro
G C x8
Tap to rate this tab
 
# A B C D E F G H I J K L M N O P Q R S T U V W X Y Z