Song name
# A B C D E F G H I J K L M N O P Q R S T U V W X Y Z

Hunter Hayes - I Want Crazy tab

So I was looking around and couldnt find a guitar tab for this song other than chords so
I thought I'd tab it out. I don't have all of it tabbed here, but this is the majority
of it. I will post the solo and remaining riffs when I get more time, but this should at 
least get you started. Enjoy!

standard tuning

Intro:

------------------------------------------------------------------|
----------8--6--6h8--------8-----------------8--6--6h8-9-8--------|
-----5h7h8-88-88------5h7h8-88-5h7h8----5h7h8-88-88-------5h7h8-8-|
------------------------------------8-----------------------------|
------------------------------------------------------------------|
------------------------------------------------------------------|

verse 1: just play Eb

verse 1 first fill:

------------------|
--------8---------|
---5h7h8-7-5/3/1--|
------------------|
------------------|
------------------|

verse 1 second fill:
------------------------------------------|
--------8----------8-----------------6-4--|
---5h7h8-7-5--5h7h8-7-5---5-7-8--7-8------|
------------------------------------------|
------------------------------------------|
------------------------------------------|

chorus:

    G#  Eb  EbD C BbG# C#m Bb Eb
----4---------------4---3--------|
----4---8---8-7-5-3-4---4--3--8--|
----5---8---8-7-5-3-5---5--3--8--|
----6---8---8-7-5-3-6---5--3--8--|
----6---6---6-5-3-1-6---3--1--6--|
----4---------------4------------|

Intro

Verse 2: just play Eb

Verse 2 fill 1:
----------------|
--8/11-9/8/6-8--| (x2)
----------------|
----------------|
----------------|
----------------|

Verse 2 fill 2:
----------------|
--8/11-9/8/6-8--| (x2) (I'll post this when I figure it out)
----------------|
----------------|
----------------|
----------------|

Chorus

Guitar solo

Chorus

Intro played until the song is over
Tap to rate this tab
# A B C D E F G H I J K L M N O P Q R S T U V W X Y Z