Song name
# A B C D E F G H I J K L M N O P Q R S T U V W X Y Z

Hunter Hayes - Invisible tab

-------------------------------------------------------------------------------
			    Invisible (Solo) - Hunter Hayes
-------------------------------------------------------------------------------
Tabbed by: Jaco Conradie

Key: F#

e|--------11~----11--/13~----------------------------------------------------|
B|---7/9-----9---------------------------------------------------------------|
G|---------------------------------------------------------------------------|
D|---------------------------------------------------------------------------|
A|---------------------------------------------------------------------------|
E|---------------------------------------------------------------------------|

e|--------11----11----11b13~-------------------------------------------------|
B|---7/9-----9-----9---------------------------------------------------------|
G|---------------------------------------------------------------------------|
D|---------------------------------------------------------------------------|
A|---------------------------------------------------------------------------|
E|---------------------------------------------------------------------------|

e|-------13~----14~----------------------------------------------------------|
B|--9/11----11---------------------------------------------------------------|
G|---------------------------------------------------------------------------|
D|---------------------------------------------------------------------------|
A|---------------------------------------------------------------------------|
E|---------------------------------------------------------------------------|

e|-----------13--16--13-----13-h-14~-----------------------------------------|
B|--14-h-16-------------14---------------------------------------------------|
G|---------------------------------------------------------------------------|
D|---------------------------------------------------------------------------|
A|---------------------------------------------------------------------------|
E|---------------------------------------------------------------------------|

e|--14b16~--16br14-p-13------------------------------------------------------|
B|---------------------14/16-------------------------------------------------|
G|---------------------------------------------------------------------------|
D|---------------------------------------------------------------------------|
A|---------------------------------------------------------------------------|
E|---------------------------------------------------------------------------|

e|-----------13~--16b18~---16~~----------------------------------------------|
B|--14-h-16------------------------------------------------------------------|
G|---------------------------------------------------------------------------|
D|---------------------------------------------------------------------------|
A|---------------------------------------------------------------------------|
E|---------------------------------------------------------------------------|





************************************

| /   slide up
| \   slide down
| h   hammer-on
| p   pull-off
| ~   vibrato
| +   harmonic
| x   Mute note
| b   Bend
| pb  Pre-bend
| br  Bend release
| pbr Pre-bend release
| brb Bend release bend

************************************
Tap to rate this tab
# A B C D E F G H I J K L M N O P Q R S T U V W X Y Z