Song name
# A B C D E F G H I J K L M N O P Q R S T U V W X Y Z

Hurricane Bells - Monsters tab

My very first attempt at a tab.  I know it's not 100% accurate in that
there's extra bits in the verse after the last stroke of each bar but I've
only been playing a couple of years so it's the best I can do.  Just
decided to have a go seeing as the only other one up at the moment seems
extremely wrong when I try to copy it.  Stumbled across thi while messing
about and decided to post in case anyone else wants to play it.  Very easy
power chord song :)

Verse

|--------------------------------------------------------------------|
|--------------------------------------------------------------------|
|4---44---4-------4---44---4-----------------------------------------|
|4---44---4-------4---44---4-------4---44---4-------4---44---4-------|
|6---66---6-------6---66---6-------4---44---4-------4---44---4-------|
|----------------------------------2---22---2-------2---22---2-------|

Chorus

|--------------------------------------------------------------------|
|--------------------------------------------------------------------|
|------------------44444444-44444444---------------------------------|
|66666666-44444444-44444444-44444444---------------------------------|
|66666666-44444444-66666666-66666666---------------------------------|
|44444444-22222222---------------------------------------------------|
Tap to rate this tab
 
# A B C D E F G H I J K L M N O P Q R S T U V W X Y Z