Song name
# A B C D E F G H I J K L M N O P Q R S T U V W X Y Z

Hurriganes - Slippin And Slidin tab

Hurriganes- Slippin' and Slidin'

Tabbed by larmo                                 


                                                                      
Gtr.1



      E.   S  Q     E.   S  Q        W                 
E||------------------------------|--------------------|
B||------------------------------|--------------------|
G||------------------------------|--------------------|
D||--17---17-17----15---15-15----|--12----------------|
A||--15---15-15----13---13-13----|--10----------------|
E||------------------------------|--------------------|


   E.   S  Q     E.   S  Q        W                 
------------------------------|--------------------|
------------------------------|--------------------|
------------------------------|--------------------|
--17---17-17----15---15-15----|--12----------------|
--15---15-15----13---13-13----|--10----------------|
------------------------------|--------------------|


   E   E   E   E   E   E   E   E      E   E   E   E   E   E   E   E   
----------------------------------|----------------------------------|
----------------------------------|----------------------------------|
----------------------------------|----------------------------------|
--12--12--14--12--12--12--14--12--|--10--10--12--10--10--10--12--10--|
--10--10--10--10--10--10--10--10--|---8---8---8---8---8---8---8---8--|
----------------------------------|----------------------------------|


   E   E   E   E   E   E   E   E     E   E   E   E   E   E   E   E   
----------------------------------|---------------------------------|
----------------------------------|---------------------------------|
----------------------------------|---------------------------------|
----------------------------------|-----12--12--12--12--12--12--12--|
--10--10--12--10--10--10--12--10--|-----10--10--10--10--10--10--10--|
---8---8---8---8---8---8---8---8--|---------------------------------|


   E   E   E   E   E   E   E   E      E   E   E   E   E   E   E   E   
----------------------------------|----------------------------------|
----------------------------------|----------------------------------|
----------------------------------|----------------------------------|
----------------------------------|----------------------------------|
--10--10--12--10--10--10--12--10--|--10--10--12--10--10--10--12--10--|
---8---8---8---8---8---8---8---8--|---8---8---8---8---8---8---8---8--|


   E   E   E   E   E   E   E   E      E   E   E   E   E   E   E   E   
----------------------------------|----------------------------------|
----------------------------------|----------------------------------|
----------------------------------|----------------------------------|
----------------------------------|----------------------------------|
--10--10--12--10--10--10--12--10--|--10--10--12--10--10--10--12--10--|
---8---8---8---8---8---8---8---8--|---8---8---8---8---8---8---8---8--|


   E   E   E   E   E   E   E   E      E   E   E   E   E   E   E   E   
----------------------------------|----------------------------------|
----------------------------------|----------------------------------|
----------------------------------|----------------------------------|
--10--10--12--10--10--10--12--10--|--10--10--12--10--10--10--12--10--|
---8---8---8---8---8---8---8---8--|---8---8---8---8---8---8---8---8--|
----------------------------------|----------------------------------|


   E   E   E   E   E   E   E   E      E   E   E   E   E   E   E   E   
----------------------------------|----------------------------------|
----------------------------------|----------------------------------|
----------------------------------|----------------------------------|
----------------------------------|----------------------------------|
--10--10--12--10--10--10--12--10--|--10--10--12--10--10--10--12--10--|
---8---8---8---8---8---8---8---8--|---8---8---8---8---8---8---8---8--|


   E   E   E   E   E   E   E   E      E   E   E   E   E   E   E   E   
----------------------------------|----------------------------------|
----------------------------------|----------------------------------|
----------------------------------|----------------------------------|
--12--12--14--12--12--12--14--12--|--10--10--12--10--10--10--12--10--|
--10--10--10--10--10--10--10--10--|---8---8---8---8---8---8---8---8--|
----------------------------------|----------------------------------|


   E  H.           E     E   E   E   E   E   E   E   E   
----------------------|---------------------------------|
----------------------|---------------------------------|
----------------------|---------------------------------|
----------------------|-----12--12--12--12--12--12--12--|
--10------------------|-----10--10--10--10--10--10--10--|
---8------------------|---------------------------------|


   E   E   E   E   E   E   E   E      E   E   E   E   E   E   E   E   
----------------------------------|----------------------------------|
----------------------------------|----------------------------------|
----------------------------------|----------------------------------|
----------------------------------|----------------------------------|
--10--10--12--10--10--10--12--10--|--10--10--12--10--10--10--12--10--|
---8---8---8---8---8---8---8---8--|---8---8---8---8---8---8---8---8--|


   E   E   E   E   E   E   E   E      E   E   E   E   E   E   E   E   
----------------------------------|----------------------------------|
----------------------------------|----------------------------------|
----------------------------------|----------------------------------|
----------------------------------|----------------------------------|
--10--10--12--10--10--10--12--10--|--10--10--12--10--10--10--12--10--|
---8---8---8---8---8---8---8---8--|---8---8---8---8---8---8---8---8--|


   E   E   E   E   E   E   E   E      E   E   E   E   E   E   E   E   
----------------------------------|----------------------------------|
----------------------------------|----------------------------------|
----------------------------------|----------------------------------|
--10--10--12--10--10--10--12--10--|--10--10--12--10--10--10--12--10--|
---8---8---8---8---8---8---8---8--|---8---8---8---8---8---8---8---8--|
----------------------------------|----------------------------------|


   E   E   E   E   E   E   E   E      E   E   E   E   E   E   E   E   
----------------------------------|----------------------------------|
----------------------------------|----------------------------------|
----------------------------------|----------------------------------|
----------------------------------|----------------------------------|
--10--10--12--10--10--10--12--10--|--10--10--12--10--10--10--12--10--|
---8---8---8---8---8---8---8---8--|---8---8---8---8---8---8---8---8--|


   E   E   E   E   E   E   E   E      E   E   E   E   E   E   E   E   
----------------------------------|----------------------------------|
----------------------------------|----------------------------------|
----------------------------------|----------------------------------|
--12--12--14--12--12--12--14--12--|--10--10--12--10--10--10--12--10--|
--10--10--10--10--10--10--10--10--|---8---8---8---8---8---8---8---8--|
----------------------------------|----------------------------------|


   E  H.           E     E   E   E   E   E   E   E   E   
----------------------|---------------------------------|
----------------------|---------------------------------|
----------------------|---------------------------------|
----------------------|-----12--12--12--12--12--12--12--|
--10------------------|-----10--10--10--10--10--10--10--|
---8------------------|---------------------------------|


   E.   S  Q     E.   S  Q        W                 
------------------------------|--------------------|
------------------------------|--------------------|
------------------------------|--------------------|
--17---17-17----15---15-15----|--12----------------|
--15---15-15----13---13-13----|--10----------------|
------------------------------|--------------------|


   E.   S  Q     E.   S  Q        W                 
------------------------------|--------------------|
------------------------------|--------------------|
------------------------------|--------------------|
--17---17-17----15---15-15----|--12----------------|
--15---15-15----13---13-13----|--10----------------|
------------------------------|--------------------|


   E   E   E   E   E   E   E   E      E   E   E   E   E   E   E   E   
----------------------------------|----------------------------------|
----------------------------------|----------------------------------|
----------------------------------|----------------------------------|
--12--12--14--12--12--12--14--12--|--10--10--12--10--10--10--12--10--|
--10--10--10--10--10--10--10--10--|---8---8---8---8---8---8---8---8--|
----------------------------------|----------------------------------|


   E   E   E   E   E   E   E   E     E   E   E   E   E   E   E   E   
----------------------------------|---------------------------------|
----------------------------------|---------------------------------|
----------------------------------|---------------------------------|
----------------------------------|-----12--12--12--12--12--12--12--|
--10--10--12--10--10--10--12--10--|-----10--10--10--10--10--10--10--|
---8---8---8---8---8---8---8---8--|---------------------------------|


   E   E   E   E   E   E   E   E      E   E   E   E   E   E   E   E   
----------------------------------|----------------------------------|
----------------------------------|----------------------------------|
----------------------------------|----------------------------------|
----------------------------------|----------------------------------|
--10--10--12--10--10--10--12--10--|--10--10--12--10--10--10--12--10--|
---8---8---8---8---8---8---8---8--|---8---8---8---8---8---8---8---8--|


   E   E   E   E   E   E   E   E      E   E   E   E   E   E   E   E   
----------------------------------|----------------------------------|
----------------------------------|----------------------------------|
----------------------------------|----------------------------------|
----------------------------------|----------------------------------|
--10--10--12--10--10--10--12--10--|--10--10--12--10--10--10--12--10--|
---8---8---8---8---8---8---8---8--|---8---8---8---8---8---8---8---8--|


   E   E   E   E   E   E   E   E      E   E   E   E   E   E   E   E   
----------------------------------|----------------------------------|
----------------------------------|----------------------------------|
----------------------------------|----------------------------------|
--10--10--12--10--10--10--12--10--|--10--10--12--10--10--10--12--10--|
---8---8---8---8---8---8---8---8--|---8---8---8---8---8---8---8---8--|
----------------------------------|----------------------------------|


   E   E   E   E   E   E   E   E      E   E   E   E   E   E   E   E   
----------------------------------|----------------------------------|
----------------------------------|----------------------------------|
----------------------------------|----------------------------------|
----------------------------------|----------------------------------|
--10--10--12--10--10--10--12--10--|--10--10--12--10--10--10--12--10--|
---8---8---8---8---8---8---8---8--|---8---8---8---8---8---8---8---8--|


   E   E   E   E   E   E   E   E      E   E   E   E   E   E   E   E   
----------------------------------|----------------------------------|
----------------------------------|----------------------------------|
----------------------------------|----------------------------------|
--12--12--14--12--12--12--14--12--|--10--10--12--10--10--10--12--10--|
--10--10--10--10--10--10--10--10--|---8---8---8---8---8---8---8---8--|
----------------------------------|----------------------------------|


   E   E   E   E   E   E   E   E     E   E   E   E   E   E   E   E   
----------------------------------|---------------------------------|
----------------------------------|---------------------------------|
----------------------------------|---------------------------------|
----------------------------------|-----12--12--12--12--12--12--12--|
--10--10--12--10--10--10--12--10--|-----10--10--10--10--10--10--10--|
---8---8---8---8---8---8---8---8--|---------------------------------|


   E.   S  Q     E.   S  Q        W                 
------------------------------|--------------------|
------------------------------|--------------------|
------------------------------|--------------------|
--17---17-17----15---15-15----|--12----------------|
--15---15-15----13---13-13----|--10----------------|
------------------------------|--------------------|


   E.   S  Q     E.   S  Q        W                 
------------------------------|--------------------|
------------------------------|--------------------|
------------------------------|--------------------|
--17---17-17----15---15-15----|--12----------------|
--15---15-15----13---13-13----|--10----------------|
------------------------------|--------------------|


   E   E   E   E   E   E   E   E      E   E   E   E   E   E   E   E   
----------------------------------|----------------------------------|
----------------------------------|----------------------------------|
----------------------------------|----------------------------------|
--12--12--14--12--12--12--14--12--|--10--10--12--10--10--10--12--10--|
--10--10--10--10--10--10--10--10--|---8---8---8---8---8---8---8---8--|
----------------------------------|----------------------------------|


   E   E   E   E   E   E   E   E     E   E   E   E   E   E   E   E   
----------------------------------|---------------------------------|
----------------------------------|---------------------------------|
----------------------------------|---------------------------------|
----------------------------------|-----12--12--12--12--12--12--12--|
--10--10--12--10--10--10--12--10--|-----10--10--10--10--10--10--10--|
---8---8---8---8---8---8---8---8--|---------------------------------|


   E   E   E   E   E   E   E   E      E   E   E   E   E   E   E   E   
----------------------------------|----------------------------------|
----------------------------------|----------------------------------|
----------------------------------|----------------------------------|
----------------------------------|----------------------------------|
--10--10--12--10--10--10--12--10--|--10--10--12--10--10--10--12--10--|
---8---8---8---8---8---8---8---8--|---8---8---8---8---8---8---8---8--|


   E   E   E   E   E   E   E   E      E   E   E   E   E   E   E   E   
----------------------------------|----------------------------------|
----------------------------------|----------------------------------|
----------------------------------|----------------------------------|
----------------------------------|----------------------------------|
--10--10--12--10--10--10--12--10--|--10--10--12--10--10--10--12--10--|
---8---8---8---8---8---8---8---8--|---8---8---8---8---8---8---8---8--|


   E   E   E   E   E   E   E   E      E   E   E   E   E   E   E   E   
----------------------------------|----------------------------------|
----------------------------------|----------------------------------|
----------------------------------|----------------------------------|
--10--10--12--10--10--10--12--10--|--10--10--12--10--10--10--12--10--|
---8---8---8---8---8---8---8---8--|---8---8---8---8---8---8---8---8--|
----------------------------------|----------------------------------|


   E   E   E   E   E   E   E   E      E   E   E   E   E   E   E   E   
----------------------------------|----------------------------------|
----------------------------------|----------------------------------|
----------------------------------|----------------------------------|
----------------------------------|----------------------------------|
--10--10--12--10--10--10--12--10--|--10--10--12--10--10--10--12--10--|
---8---8---8---8---8---8---8---8--|---8---8---8---8---8---8---8---8--|


   E   E   E   E   E   E   E   E      E   E   E   E   E   E   E   E   
----------------------------------|----------------------------------|
----------------------------------|----------------------------------|
----------------------------------|----------------------------------|
--12--12--14--12--12--12--14--12--|--10--10--12--10--10--10--12--10--|
--10--10--10--10--10--10--10--10--|---8---8---8---8---8---8---8---8--|
----------------------------------|----------------------------------|


   E  H.           E     E   E   E   E   E   E   E   E   
----------------------|---------------------------------|
----------------------|---------------------------------|
----------------------|---------------------------------|
----------------------|-----12--12--12--12--12--12--12--|
--10------------------|-----10--10--10--10--10--10--10--|
---8------------------|---------------------------------|


   E   E   E   E   E   E   E   E      E   E   E   E   E   E   E   E   
----------------------------------|----------------------------------|
----------------------------------|----------------------------------|
----------------------------------|----------------------------------|
----------------------------------|----------------------------------|
--10--10--12--10--10--10--12--10--|--10--10--12--10--10--10--12--10--|
---8---8---8---8---8---8---8---8--|---8---8---8---8---8---8---8---8--|


   E   E   E   E   E   E   E   E      E   E   E   E   E   E   E   E   
----------------------------------|----------------------------------|
----------------------------------|----------------------------------|
----------------------------------|----------------------------------|
----------------------------------|----------------------------------|
--10--10--12--10--10--10--12--10--|--10--10--12--10--10--10--12--10--|
---8---8---8---8---8---8---8---8--|---8---8---8---8---8---8---8---8--|


   E   E   E   E   E   E   E   E      E   E   E   E   E   E   E   E   
----------------------------------|----------------------------------|
----------------------------------|----------------------------------|
----------------------------------|----------------------------------|
--10--10--12--10--10--10--12--10--|--10--10--12--10--10--10--12--10--|
---8---8---8---8---8---8---8---8--|---8---8---8---8---8---8---8---8--|
----------------------------------|----------------------------------|


   E   E   E   E   E   E   E   E      E   E   E   E   E   E   E   E   
----------------------------------|----------------------------------|
----------------------------------|----------------------------------|
----------------------------------|----------------------------------|
----------------------------------|----------------------------------|
--10--10--12--10--10--10--12--10--|--10--10--12--10--10--10--12--10--|
---8---8---8---8---8---8---8---8--|---8---8---8---8---8---8---8---8--|


   E   E   E   E   E   E   E   E      E   E   E   E   E   E   E   E   
----------------------------------|----------------------------------|
----------------------------------|----------------------------------|
----------------------------------|----------------------------------|
--12--12--14--12--12--12--14--12--|--10--10--12--10--10--10--12--10--|
--10--10--10--10--10--10--10--10--|---8---8---8---8---8---8---8---8--|
----------------------------------|----------------------------------|


   E  H.           E     E   E   E   E   E   E   E   E   
----------------------|---------------------------------|
----------------------|---------------------------------|
----------------------|---------------------------------|
----------------------|-----12--12--12--12--12--12--12--|
--10------------------|-----10--10--10--10--10--10--10--|
---8------------------|---------------------------------|


   E.   S  Q     E.   S  Q        W                 
------------------------------|--------------------|
------------------------------|--------------------|
------------------------------|--------------------|
--17---17-17----15---15-15----|--12----------------|
--15---15-15----13---13-13----|--10----------------|
------------------------------|--------------------|


   E.   S  Q     E.   S  Q        W                 
------------------------------|--------------------|
------------------------------|--------------------|
------------------------------|--------------------|
--17---17-17----15---15-15----|--12----------------|
--15---15-15----13---13-13----|--10----------------|
------------------------------|--------------------|


   E   E   E   E   E   E   E   E      E   E   E   E   E   E   E   E   
----------------------------------|----------------------------------|
----------------------------------|----------------------------------|
----------------------------------|----------------------------------|
--12--12--14--12--12--12--14--12--|--10--10--12--10--10--10--12--10--|
--10--10--10--10--10--10--10--10--|---8---8---8---8---8---8---8---8--|
----------------------------------|----------------------------------|


   E   E   E   E   E   E   E   E     H         H          
----------------------------------|---------------------||
----------------------------------|---------------------||
----------------------------------|-----------17--------||
----------------------------------|-----------17--------||
--10--10--12--10--10--10--12--10--|-----------15--------||
---8---8---8---8---8---8---8---8--|---------------------||



Gtr. 2



      H          H             W                    H          H          
E||------------------------|--------------------|------------------------|
B||------------------------|--------------------|------------------------|
G||--17\--------15\--------|--12----------------|--17\--------15\--------|
D||--17\--------15\--------|--12----------------|--17\--------15\--------|
A||------------------------|--------------------|------------------------|
E||------------------------|--------------------|------------------------|


   W                     W                     W                 
--------------------|---------------------|---------------------|
--------------------|---------------------|---------------------|
--12----------------|--/12----------------|--/10----------------|
--12----------------|--/12----------------|--/10----------------|
--------------------|---------------------|---------------------|
--------------------|---------------------|---------------------|


    W                   E   E   E   E   E   E   E   E       W                 
---------------------|---------------------------------|---------------------|
---------------------|---------------------------------|---------------------|
---------------------|-----12--12--12--12--12--12--12--|---------------------|
--/10----------------|-----12--12--12--12--12--12--12--|--/10----------------|
--/10----------------|---------------------------------|--/10----------------|
---------------------|---------------------------------|---------------------|


   W                     W                    W                 
--------------------|---------------------|--------------------|
--------------------|---------------------|--------------------|
--------------------|---------------------|--------------------|
---L----------------|--/10----------------|---L----------------|
---L----------------|--/10----------------|---L----------------|
--------------------|---------------------|--------------------|


    W                    W                     W                 
---------------------|--------------------|---------------------|
---------------------|--------------------|---------------------|
--/10----------------|---L----------------|---------------------|
--/10----------------|---L----------------|--/10----------------|
---------------------|--------------------|--/10----------------|
---------------------|--------------------|---------------------|


   W                     W                     W                 
--------------------|---------------------|---------------------|
--------------------|---------------------|---------------------|
--------------------|--/12----------------|--/10----------------|
---L----------------|--/12----------------|--/10----------------|
---L----------------|---------------------|---------------------|
--------------------|---------------------|---------------------|


   E  H.           E     E   E   E   E   E   E   E   E       W                 
----------------------|---------------------------------|---------------------|
----------------------|---------------------------------|---------------------|
----------------------|-----12--12--12--12--12--12--12--|---------------------|
--10------------------|-----12--12--12--12--12--12--12--|--/10----------------|
--10------------------|---------------------------------|--/10----------------|
----------------------|---------------------------------|---------------------|


   W                     W                    E    Q     E    E   Q.      
--------------------|---------------------|------------------------------|
--------------------|---------------------|------------------------------|
--------------------|---------------------|-------------12---------------|
---L----------------|--/10----------------|---L--/14--------/14--10------|
---L----------------|--/10----------------|---L--------------------------|
--------------------|---------------------|------------------------------|


    W                    W                     W                 
---------------------|--------------------|---------------------|
---------------------|--------------------|---------------------|
--/10----------------|---L----------------|---------------------|
--/10----------------|---L----------------|--/10----------------|
---------------------|--------------------|--/10----------------|
---------------------|--------------------|---------------------|


   W                     W                     W                 
--------------------|---------------------|---------------------|
--------------------|---------------------|---------------------|
--------------------|--/12----------------|--/10----------------|
---L----------------|--/12----------------|--/10----------------|
---L----------------|---------------------|---------------------|
--------------------|---------------------|---------------------|


   E  H.           E     E   E   E   E   E   E   E   E   
----------------------|---------------------------------|
----------------------|---------------------------------|
----------------------|-----12--12--12--12--12--12--12--|
--10------------------|-----12--12--12--12--12--12--12--|
--10------------------|---------------------------------|
----------------------|---------------------------------|


   H          H             W                    H          H          
------------------------|--------------------|------------------------|
------------------------|--------------------|------------------------|
--17\--------15\--------|--12----------------|--17\--------15\--------|
--17\--------15\--------|--12----------------|--17\--------15\--------|
------------------------|--------------------|------------------------|
------------------------|--------------------|------------------------|


   W                     W                     W                 
--------------------|---------------------|---------------------|
--------------------|---------------------|---------------------|
--12----------------|--/12----------------|--/10----------------|
--12----------------|--/12----------------|--/10----------------|
--------------------|---------------------|---------------------|
--------------------|---------------------|---------------------|


    W                   E   E   E   E   E   E   E    E   
---------------------|-----------------------------/15--|
---------------------|----------------------------------|
---------------------|-----12--12--12--12--12--12-------|
--/10----------------|-----12--12--12--12--12--12-------|
--/10----------------|----------------------------------|
---------------------|----------------------------------|


   Q      Q     Q.       E      E   E    E   H          E   
---L----/12-----------------|------15----------------------|
---------------13------/17--|---L------/17--13--------/17--|
----------------------------|------------------------------|
----------------------------|------------------------------|
----------------------------|------------------------------|
----------------------------|------------------------------|


   E   E   E    Q.        E   E       E   Q.     Q     Q      
------15------/19\-----------15--|---------------------------|
---L------17------------/17------|--/17--13-----------17\----|
---------------------------------|---------------------------|
---------------------------------|---------------------------|
---------------------------------|---------------------------|
---------------------------------|---------------------------|


    Q      E   H          E      E   E   E    Q     E   Q      
-----------------------------|--------------------------------|
-----------------------------|------13------/17----17--17\----|
--/14----/14--10--------/14--|---L------14--/17----17--17\----|
-----------------------------|--------------------------------|
-----------------------------|--------------------------------|
-----------------------------|--------------------------------|


    E   E   E   E   E   E   E   E     E  E   E   H          E   
-----------------------------------|---------------------------|
--/11--11--11--11--11--11--11------|-----8---------------------|
--/12--12--12--12--12--12--12--/9--|--L-----/9------------/16--|
-----------------------------------|------------10-------------|
-----------------------------------|---------------------------|
-----------------------------------|---------------------------|


   E   E    E   Q.      Q          E   E    E   E    Q      Q      
------------------------------|-----------------------------------|
------15---------------12\----|-----------------------------------|
---L------/16--12-------------|--/14--14--/14--14--/14\----10\----|
------------------------------|-----------------------------------|
------------------------------|-----------------------------------|
------------------------------|-----------------------------------|


  E   E   E   E  E   E   E   E     E   E   E   E   E   E   E   E   
--------------------------------|---------------------------------|
--------------------------------|---------------------------------|
--------------------------------|-----12--12--12--12--12--12--12--|
-----10--10--10-----10--10--10--|-----12--12--12--12--12--12--12--|
-----10--10--10-----10--10--10--|---------------------------------|
--------------------------------|---------------------------------|


   H          H             W                    H          H          
------------------------|--------------------|------------------------|
------------------------|--------------------|------------------------|
--17\--------15\--------|--12----------------|--17\--------15\--------|
--17\--------15\--------|--12----------------|--17\--------15\--------|
------------------------|--------------------|------------------------|
------------------------|--------------------|------------------------|


   W                     W                     W                 
--------------------|---------------------|---------------------|
--------------------|---------------------|---------------------|
--12----------------|--/12----------------|--/10----------------|
--12----------------|--/12----------------|--/10----------------|
--------------------|---------------------|---------------------|
--------------------|---------------------|---------------------|


    W                   E   E   E   E   E   E   E   E       W                 
---------------------|---------------------------------|---------------------|
---------------------|---------------------------------|---------------------|
---------------------|-----12--12--12--12--12--12--12--|---------------------|
--/10----------------|-----12--12--12--12--12--12--12--|--/10----------------|
--/10----------------|---------------------------------|--/10----------------|
---------------------|---------------------------------|---------------------|


   W                     W                    W                 
--------------------|---------------------|--------------------|
--------------------|---------------------|--------------------|
--------------------|---------------------|--------------------|
---L----------------|--/10----------------|---L----------------|
---L----------------|--/10----------------|---L----------------|
--------------------|---------------------|--------------------|


    W                    W                     W                 
---------------------|--------------------|---------------------|
---------------------|--------------------|---------------------|
--/10----------------|---L----------------|---------------------|
--/10----------------|---L----------------|--/10----------------|
---------------------|--------------------|--/10----------------|
---------------------|--------------------|---------------------|


   W                     W                     W                 
--------------------|---------------------|---------------------|
--------------------|---------------------|---------------------|
--------------------|--/12----------------|--/10----------------|
---L----------------|--/12----------------|--/10----------------|
---L----------------|---------------------|---------------------|
--------------------|---------------------|---------------------|


   E  H.           E     E   E   E   E   E   E   E   E       W                 
----------------------|---------------------------------|---------------------|
----------------------|---------------------------------|---------------------|
----------------------|-----12--12--12--12--12--12--12--|---------------------|
--10------------------|-----12--12--12--12--12--12--12--|--/10----------------|
--10------------------|---------------------------------|--/10----------------|
----------------------|---------------------------------|---------------------|


   W                     W                    H         H          
--------------------|---------------------|-----------------------|
--------------------|---------------------|-----------------------|
--------------------|---------------------|-----------------------|
---L----------------|--/10----------------|---L--------10S--------|
---L----------------|--/10----------------|---L--------10S--------|
--------------------|---------------------|-----------------------|


   W                    W                     W                 
--------------------|--------------------|---------------------|
--------------------|--------------------|---------------------|
--------------------|--------------------|---------------------|
--15----------------|---L----------------|--/10----------------|
--15----------------|---L----------------|--/10----------------|
--------------------|--------------------|---------------------|


   W                     W                     W                 
--------------------|---------------------|---------------------|
--------------------|---------------------|---------------------|
--------------------|--/12----------------|--/10----------------|
---L----------------|--/12----------------|--/10----------------|
---L----------------|---------------------|---------------------|
--------------------|---------------------|---------------------|


   E  H.           E     E   E   E   E   E   E   E   E   
----------------------|---------------------------------|
----------------------|---------------------------------|
----------------------|-----12--12--12--12--12--12--12--|
--10------------------|-----12--12--12--12--12--12--12--|
--10------------------|---------------------------------|
----------------------|---------------------------------|


   H          H             W                    H          H          
------------------------|--------------------|------------------------|
------------------------|--------------------|------------------------|
--17\--------15\--------|--12----------------|--17\--------15\--------|
--17\--------15\--------|--12----------------|--17\--------15\--------|
------------------------|--------------------|------------------------|
------------------------|--------------------|------------------------|


   W                     W                     W                 
--------------------|---------------------|---------------------|
--------------------|---------------------|---------------------|
--12----------------|--/12----------------|--/10----------------|
--12----------------|--/12----------------|--/10----------------|
--------------------|---------------------|---------------------|
--------------------|---------------------|---------------------|


    W                   E   Q.       H          
---------------------|------------------------||
---------------------|------------------------||
---------------------|-----12S------17--------||
--/10----------------|-----12S------17--------||
--/10----------------|------------------------||
---------------------|------------------------||




Duration Legend
---------------
W - whole
H - half
Q - quarter
E - 8th
S - 16th
T - 32nd
X - 64th
. - note dotted
|-n-|  - n-tuplets


Tablature Legend
----------------
L - tied note
x - dead note
g - grace note
(n) - ghost note
> - accentuded note
NH - natural harmonic
AH - artificial harmonic
TH - tapped harmonic
SH - semi harmonic
PH - pitch harmonic
h - hammer on
p - pull off
b - bend
br - bendRelease
pb - preBend
pbr - preBendRelease
brb - bendReleaseBend
\n/ - tremolo bar dip
\n - tremolo bar dive
-/n - tremolo bar Release up
/n\ - tremolo bar inverted dip
/n - tremolo bar return
-\n - tremolo bar Release down
S - shift slide
s - legato slide
/ -  slide into from below or out of upwards
\ -  slide into from above or out of downwards
~ - vibrato
W - wide vibrato
tr - trill
TP - tremolo picking
T - tapping
S - slap
P - pop
< - fade in
^ - brush up
v - brush down
Tap to rate this tab
 
# A B C D E F G H I J K L M N O P Q R S T U V W X Y Z