Song name
# A B C D E F G H I J K L M N O P Q R S T U V W X Y Z

Hurt Process - Night Before The Morning After tab

Tabbed By: Mark
Artist: The Hurt Process
Song: The Night Before the Morning After
Album: A Heartbeat Behind
Email: marklup88@hotmail.com

 
 
INTRO


One Guitar Only


e|-----------------------------------------------x--|
B|-----------------------------------------------x--|
G|-----0-----------------------0-----0-----------x--|
D|---5---0-2-0---------2-----------5---0-2-0-----3--|
A|-3-----------3-0---3---3---3---3-----------3-0-3--|
E|-----------------1-------1---------------------1--|


VERSE 1 & VERSE 2


Guitar 1


e|----------------------------------------------------------|
B|----------------------------------------------------------|
G|-----0-----------------------0-----0----------------------|
D|---5---0-2-0---------2-----------5---0-2-0---------2------|
A|-3-----------3-0---3---3---3---3-----------3-0---3---3----|
E|-----------------1-------1---------------------1-------1--|



e|--------------------------------------------------------------|
B|--------------------------------------------------------------|
G|-----0-----------------------0-----0--------------------------|
D|---5---0-2-0---------2-----------5---0-2-0---------2-----3----|
A|-3-----------3-0---3---3---3---3-----------3-0---3-----2---2--|
E|-----------------1-------1---------------------1-----1--------|


Guitar 2


Part 1 (0:08-0:24)


e|------3-----3--|
B|---------------|
G|--5-5---5-5----|(8x)
D|---------------|
A|---------------|
E|---------------|


Part 2 (0:24-0:36)

e|------3-----3-----3-----3-----3-----3-----3-----3>
B|------------------------------------------------->
G|--4-4---4-4---2-2---2-2---4-4---4-4---2-2---2-2-->
D|------------------------------------------------->
A|------------------------------------------------->
E|------------------------------------------------->


<-----3-----3-----3-----3-3-3-3-3-3-|
<-----------------------------------|
<-4-4---4-4---2-2---2-2---4-4-4-4-4-|
<-----------------------------------|
<-----------------------------------|
<-----------------------------------|


CHORUS


Guitar 1


e|-3---8---3---8---5---8---3--|
B|-3---8---3---8---5---8---3--|
G|-5---10--5---10--7---10--5--|(2x)
D|-5---10--5---10--7---10--5--|
A|-3---8---3---8---5---8---3--|
E|-3---8---3---8---5---8---3--|



Guitar 2


e|-3---------------5---3---5---3--|
B|-3---------------5---3---5---3--|
G|-5---------------7---5---7---5--|(2x)
D|-5---------------7---5---7---5--|
A|-3---------------5---3---5---3--|
E|-3---------------5---3---5---3--|



After Chorus, repeat Intro 1x



BRIDGE (2:20)


Guitar 1


e|-0---3---0---3---0*---3*---0---3---0*---3*>
B|-0---3---0---3---0*---3*---0---3---0*---3*>
G|-2---5---2---5---2*---5*---2---5---2*---5*>
D|-2---5---2---5---2*---5*---2---5---2*---5*>
A|-0---3---0---3---0*---3*---0---3---0*---3*>
E|-x---3---x---3---0*---3*---0---3---0*---3*>


<---0*---3*---0*---3*---0*---3*--|
<---0*---3*---0*---3*---0*---3*--|
<---2*---5*---2*---5*---2*---5*--|  *= Count of 8
<---2*---5*---2*---5*---2*---5*--|
<---0*---3*---0*---3*---0*---3*--|
<---0*---3*---0*---3*---0*---3*--|


While Guitar 1 is playing the soft strumming counts of 8, Guitar 2 is playing this.


Part 1 (2:24)

e|------5-------5----3-------3--|
B|------------------------------|
G|--5-5---5-5-5--5-5---5-5-5----|
D|------------------------------|
A|------------------------------|
E|------------------------------|


Part 2 (2:31)


e|------5-------5----3-------3-----5-------5----3-------3-----5->
B|-------------------------------------------------------------->
G|--5-5---5-5-5--5-5---5-5-5---5-5---5-5-5--5-5---5-5-5---5-5--->
D|-------------------------------------------------------------->
A|-------------------------------------------------------------->
E|-------------------------------------------------------------->


<------5-----7-------7-----5-------5-----7-------8--|
<---------------------------------------------------|
<5-5-5---5-5---5-5-5---5-5---5-5-5---5-5---5-5-5----|
<---------------------------------------------------|
<---------------------------------------------------|
<---------------------------------------------------|


Chorus 1x then Repeat Intro to end the song.









Tap to rate this tab
# A B C D E F G H I J K L M N O P Q R S T U V W X Y Z