Song name
# A B C D E F G H I J K L M N O P Q R S T U V W X Y Z

Hurt - Rapture Acoustic tab

-----------------------------------------------------------------
Hurt - Rapture (Acoustic session @ EMI 06/23/2006)
-----------------------------------------------------------------
Tabbed by:the_misery
Email:nigel_barker@hotmail.co.uk
Tuning:Down 1/2 step - Drop D

  Tabbed for this version:
   http://www.youtube.com/watch?v=yrvDKZcwpA0
  I dont think it fits any others.

  Now, this is the first thing ive ever tabbed out so please bare with me.
  Ive worked this out myself and its taken alot of time and effort but
  i will admit it isnt perfect. If nothing else it should give you a good
  idea of where to play each part and wherever im wrong you can fiddle with
  it and sort it out. The amount of times to hit notes and things wont be
  exact either so i urge you to listen to the song and you'll get the idea.
  Enjoy!


                     Intro
Intro Riff 1
e|--------------------------------------------------------------------------|
B|--------------------------------------------------------------------------|
G|----14---15---12---12---12---12------12----14---10-----10-----10-----10---|
D|--0----0----0----0----0----0------0------0----0-----0------0------0-------|
A|--------------------------------------------------------------------------|
E|--------------------------------------------------------------------------|

e|-----------------------------------------------------------------------|
B|-----------------------------------------------------------------------|
G|------10----12---9---9-------------------------------------------------|
D|---0-----0-----0---0---------------------------------------------------|
A|-----------------------------------------------------------------------|
E|-----------------------------------------------------------------------|



Intro Riff 2
e|--------------------------------------------------------------------------|
B|--------------------------------------------------------------------------|
G|----------------------2p0------------2p0----------------------------------|
D|------0---0---0----------3----0---0-----3--2p0------0----0---0------------|
A|-------------------------------------------3------------------------------|
E|-0--0---0---0---0----------0-0---0---------------0-0---0---0----0---------|

e|-------------------------------------------------------------------------|
B|-------------------------------------------------------------------------|
G|--2p0--------------------------------------------------------------------|
D|-----3-----0---0---0-----------------------------------------------------|
A|-------------------------------------------------------------------------|
E|-------0-0----0---0--0---5h7p5-/3----------------------------------------|


   Guitar 1
e|---------------------------------------------------------------------|
B|---------------------------------------------------------------------|
G|---------------------------------------------------------------------|
D|--0--0--0--0--3------------------------------------------------------|
A|--0--0--0--0--3------------------------------------------------------|
E|--0--0--0--0--3------------------------------------------------------|

  Guitar 2
e|--------------------------------------------------------------------------|
B|--------------------------------------------------------------------------|
G|------10---10---10---10---9---  }3 Times----9h10--10p9--9/7--7/5----5h7---|
D|-0-0-----0----0----0----0-------------------------------------------------|
A|-0------------------------------------------------------------------------|
E|-0------------------------------------------------------------------------|




                    Verse Riff 1
    'In the life of the wrong'
e|-----------------------------------------------------------------------|
B|-----------------------------------------------------------------------|
G|-----------------------------------------------------------------------|
D|--0-0-x-x-x-x-0-0-x-x-x-x-0h3-3-3------------------------------Times 4-|
A|--0-0-x-x-x-x-0-0-x-x-x-x-0h3-3-3--------------------------------------|
E|--0-0-x-x-x-x-0-0-x-x-x-x-0h3-3-3--------------------------------------|

                   Verse Riff 2
  'Til she walks in the'
e|--0--------0--------0---------0--------0---------------------|
B|--3--------3--------5---------3--------5------|      Times 2-|
G|--2--------0--------0---------0--------0---------------------|
D|--0--------0--------0---------0--------0---------------------|   Play around picking
A|--0--------0--------0---------0--------0---------------------|   the chords
E|--0--------3--------5---------3--------5---------------------|



             Chorus

  Play this bit softly the first time.
     Chorus Riff 1
  'Until your rapture'
e|-----------------------------------------------------------------|
B|-----------------------------------------------------------------|
G|---7--7---7/9----9----9/10---10---10/12----12--------------------|
D|---0--0---0/0----0----0/0----0----0/-0-----0---------------------|
A|---5--5---5/7----7----7/8----8----8/-10----10--------------------|
E|---0--0---0/0----0----0/0----0----0/-0-----0---------------------|


      Chorus Riff 2
  'Find in me'
e|---0-----0------0-----------------------------------------|
B|---3-----3------5-----------------------------------------|
G|---2-----0------0---------------------------------Times 2-|
D|---0-----0------0-----------------------------------------|
A|---0-----0------0-----------------------------------------|
E|---0-----3------5-----------------------------------------|


  'Life has gone'
e|---------------------------------------------------------|
B|---------------------------------------------------------|
G|---------------------------------------------------------|
D|--0-0-x-x-x-x-0-0-x-x-x-x-0h3-3-3-----------|   times 4--|
A|--0-0-x-x-x-x-0-0-x-x-x-x-0h3-3-3------------------------|
E|--0-0-x-x-x-x-0-0-x-x-x-x-0h3-3-3------------------------|

              Repeat Verse and Chorus



e|--0--------0--------0---------0--------0--------|
B|--3--------3--------5---------3--------5--------|      Times 2
G|--2--------0--------0---------0--------0--------|
D|--0--------0--------0---------0--------0--------|
A|--0--------0--------0---------0--------0--------|
E|--0--------3--------5---------3--------5--------|

  'If i could then i would'
e|--0---0---0----------0--0---------------------------------------------|
B|--3---3---3----------3--3---------------------------------------------|
G|--2---2---2---2p0----2--2---------------------------------------------|
D|--0---0---0------3---0--0---------------------------------------------|
A|--0---0---0----------0--0---------------------------------------------|
E|--0---0---3----------0--0---------------------------------------------|

                'Until your worn again'

                Repeat Chorus then just chorus riff 1

'Just to live...'
e|-----------------------------------------------------------------|
B|-----------------------------------------------------------------|
G|---7-7-7-7---7-7-7-7-----7/10------------------------------------|
D|---0-0-0-0---0-0-0-0-----0/0-------------------------------------|
A|---5-5-5-5---5-5-5-5-----5/8-------------------------------------|
E|---0-0-0-0---0-0-0-0-----0/0-------------------------------------|

e|------------------------------------------------------------------|
B|------------------------------------------------------------------|
G|---7-7-7-7---7-7-7-7-----10/12-12---------------------------------|
D|---0-0-0-0---0-0-0-0-----0/-0--0----------------------------------|
A|---5-5-5-5---5-5-5-5-----8/-10-10---------------------------------|
E|---0-0-0-0---0-0-0-0-----0/-0--0----------------------------------|

e|------------------------------------------------------------------|
B|------------------------------------------------------------------|
G|---7-7-7-7---7-7-7-7-----7/10-------------------------------------|
D|---0-0-0-0---0-0-0-0-----0/0--------------------------------------|
A|---5-5-5-5---5-5-5-5-----5/8--------------------------------------|
E|---0-0-0-0---0-0-0-0-----0/0--------------------------------------|

e|----------------------------------------------------------------------|
B|----------------------------------------------------------------------|
G|---14-14-14-14---14-14-14-14---14-14-14-------------------------------|
D|---0--0--0--0----0--0--0--0----0--0--0--------------------------------|
A|---12-12-12-12---12-12-12-12---12-12-12-------------------------------|
E|---0--0--0--0----0--0--0--0----0--0--0--------------------------------|



e|--------------------------------------------------------------------------|
B|--------------------------------------------------------------------------|
G|---7--7--7--7------9--9--9--9------10-10-10-10------12--12--12--12--------|
D|---0--0--0--0------0--0--0--0------0--0--0--0-------0---0---0---0---------|
A|---5--5--5--5------7--7--7--7------8--8--8--8-------10--10--10--10--------|
E|---0--0--0--0------0--0--0--0------0--0--0--0-------0---0---0---0---------|


e|-----------------------------------------------------------------|
B|-----------------------------------------------------------------|
G|---7--7--7--7---9----5--5--5--5---7---5--5--5--5----7---7--------|
D|---0--0--0--0---0----0--0--0--0---0---3--3--3--3----5---5--------|
A|---5--5--5--5---7----3--3--3--3---5---3--3--3--3----5---5--------|
E|---0--0--0--0---0----0--0--0--0---0---3--3--3--3----5---5--------|


'Until you find in me'
e|--------------------------------------------------------------------|
B|--------------------------------------------------------------------|Palm mute this time
G|---7--7--7--7------9--9--9--9------10-10-10-10------12--12--12--12--|
D|---0--0--0--0------0--0--0--0------0--0--0--0-------0---0---0---0---|
A|---5--5--5--5------7--7--7--7------8--8--8--8-------10--10--10--10--|
E|---0--0--0--0------0--0--0--0------0--0--0--0-------0---0---0---0---|

e|------------------------------------------------------------------|
B|------------------------------------------------------------------|
G|---7--7--7--7------9--9--9--9------10-10-10-10------12--12--12--12|
D|---0--0--0--0------0--0--0--0------0--0--0--0-------0---0---0---0-|
A|---5--5--5--5------7--7--7--7------8--8--8--8-------10--10--10--10|
E|---0--0--0--0------0--0--0--0------0--0--0--0-------0---0---0---0-|

e|----------------------------------------------------------------------|
B|----------------------------------------------------------------------|
G|-------7----10--9--7--------------------------------------------------|
D|-----0----------------10--8--8--10--7/5--5/7--------------------------|
A|---0-----0------------------------------------------------------------|
E|----------------------------------------------------------------------|

e|-------------------------------------------------------------------|
B|-------------------------------------------------------------------|
G|-------7---10--9--7------------------------------------------------|
D|-----0---------------10--8--8--10--7-------------------------------|
A|---0----0----------------------------------------------------------|
E|-------------------------------------------------------------------|


'She swore she heard''
e|-----------------------------------------------|
B|-----------------------------------------------|
G|---7--------5--------2---------3---------------|Pick the notes...
D|---7--------5--------2---------3---------------|
A|---5--------3--------0---------1---------------|
E|-----------------------------------------------|
Tap to rate this tab
 
# A B C D E F G H I J K L M N O P Q R S T U V W X Y Z