Song name
# A B C D E F G H I J K L M N O P Q R S T U V W X Y Z

Hurt - Falls Apart Acoustic tab

-------------------------------------------------------------------------------
			     Falls Apart - Hurt
-------------------------------------------------------------------------------

Artist: Hurt
Song: Falls Appart (acoustic session @ EMI)
Tuning: Drop D
Tabbed by: Midge (zenos-paradox@hotmail.com)

This is the acoustic tab for hurts song "Falls Apart" if you wanna see the video i 
its http://ie.youtube.com/watch?v=a1RNnnuBL20
its not 100%right but its better than any other tab so far!


Intro

Guitar One
e|--------0-------0--------------------------------------|
b|--------1-------1--------------------------------------|
g|--------2-------0--------------------------------------| x6
d|-----2--2----2--2---3---0h2-2--2----0h2--2--2----------|
a|---0------3---------3----------------------------------|
d|--------------------3-3-----------3--------------------|

Guitar Two
e|-12---------------8---------------------------------------------|
b|----12--10--8h10----10--8h10---3/5--5-5-5--1-1\3----------------|
g|----------------------------------------------------------------|
d|----------------------------------------------------------------|
a|----------------------------------------------------------------|
d|----------------------------------------------------------------|

Verse

Both guitars
e|--------0-------0--------------------------------------|
b|--------1-------1--------------------------------------|
g|--------2-------0--------------------------------------| x6
d|-----2--2----2--2---3---0h2-2--2----0h2----------------|
a|---0------3---------3----------------------------------|
d|--------------------3-3-----------3--------------------|

Chorus
NB*The strumming patterns change in each chorus*
"Cause everything just falls apart"
Guitar one (fingerpickd in first chorus)
e|-------------------------|
b|-------------------------|
g|--5~----7~----9~---------|
d|--3~----5~----7~---------| x2
a|--3~----5~----7~---------|
d|--3~----5~----7~---------|

Guitar two (over first chorus)
e|-----------|
b|-13-12-8-5~|
g|-----------|
d|-----------|
a|-----------|
d|-----------|

  "I cracked my head and broke my..."
Guitar one
e|-----------------------------------------|
b|-----------------------------------------|
g|--5~----7~----5~----7~----5~----7~----9~-|
d|--3~----5~----3~----5~----3~----5~----7~-| x1
a|--3~----5~----3~----5~----3~----5~----7~-|
d|--3~----5~----3~----5~----3~----5~----7~-|

Guitar two (Palm muted and hard to hear)
e|-----------------------|
b|-----------------------|
g|5-4-5-4-5-4-5-4-5-4-5-4|
d|-----------------------|
a|-----------------------|
d|-----------------------|


verse 2

Both guitars
e|--------0-------0--------------------------------------|
b|--------1-------1--------------------------------------|
g|--------2-------0--------------------------------------| x6
d|-----2--2----2--2---3---0h2-2--2----0h2----------------|
a|---0------3---------3----------------------------------|
d|--------------------3-3-----------3--------------------|

Chorus 2 (strummed heavily)
NB*The strumming patterns change in each chorus*
"Cause everything just falls apart"
e|-------------------------|
b|-------------------------|
g|--5~----7~----9~---------|
d|--3~----5~----7~---------| x2
a|--3~----5~----7~---------|
d|--3~----5~----7~---------|

  "I cracked my head and broke my..." (fingerpicked)
e|-----------------------------------------|
b|-----------------------------------------|
g|--5~----7~----5~----7~----5~----7~----9~-|
d|--3~----5~----3~----5~----3~----5~----7~-| x1
a|--3~----5~----3~----5~----3~----5~----7~-|
d|--3~----5~----3~----5~----3~----5~----7~-|


Bridge(picking riff)
"And the hell of it is what we are"
e|---------------------10---10---8---8-----|
b|-10---10---12---12-----------------------|
g|----9----9----9----9----9----9---9---9---| x4
d|-----------------------------------------|
a|-----------------------------------------|
d|-----------------------------------------|

After that there are just some variations on the shorus chords which are pretty easy to 
out for yourself!

| /  slide up
| \  slide down
| h  hammer-on
| p  pull-off
| ~  vibrato
| +  harmonic
| x  Mute note


Lyrics
I messed up again when I tried
You spend all your money and I...
And, oh! By the way.
With all you did nothing has changed
So lie like a waste by the side
As everything just falls apart
'Cause everything just fell apart for me

I cracked my head and broke my
I correct my head and broke my
I cracked my head and broke my heart

And I don't feel the need to go on
I was happier singing along the way
I had things, I need to say
But now its like a swallowed tape
That holds up my face from inside

'as everything just falls apart
'Cause everything just fell apart for me

I cracked my head and broke my
I cracked my head and broke my
I cracked my head and broke my heart

So woe is me
Oh woe is me, yeah
Woe is me
It all fell apart

I cracked my head and broke my
I cracked my head and broke my
I cracked my head and broke my...heart

And the hell of it is what we are
We finish and wish we could start again
Our skin tears away as our memories fade with age
And we don't even know 'til its gone...
But everything just fell apart
'Cause everything just falls apart for me

I cracked my head and broke my
I cracked my head and broke my
I cracked my head and broke my heart

So woe is me
It all falls apart you see
So woe is me
It all fell apart

I cracked my head and broke my
I cracked my head and broke my
I cracked my head and broke my heart

Everything just comes down
It falls around me cause, well...
Everything just falls uhhhh...

So woe is me
It all falls apart you see
So woe is me
It all fell apart

But I cracked my head and broke my
I cracked my head and broke my
Everything just falls a...
Tap to rate this tab
# A B C D E F G H I J K L M N O P Q R S T U V W X Y Z