Song name
# A B C D E F G H I J K L M N O P Q R S T U V W X Y Z

Hurt - House Carpenter tab

HURT – HOUSE CARPENTER

All by ear my friends...I was tired of those rip offs tabbed so i did this, and trust me 
sounds almost exactly alike. i mite of missed just a couple notes

Gtr I & II are ½ step down (Eb,Ab,Db,Gb,Bb,eb)

Gtr I INTRO (Gtr’s clean)
-This is the exact number to play these from left to right.

e |-7-------|    e |-8--------|    e |-7-------|    e |-5-------|
B |---8-7-5-|    B |---10-8-7-|    B |---8-7-5-|    B |---8-7-5-|
G |---------|    G |----------|    G |---------|    G |---------|
D |---------|x4  D |----------|x8  D |---------|x2  D |---------|x2
A |---------|    A |----------|    A |---------|    A |---------|
E |---------|    E |----------|    E |---------|    E |---------|


e |-7-------|    e |-8--------|    e |-7-------|    e |-5-------|
B |---8-7-5-|    B |---10-8-7-|    B |---8-7-5-|    B |---8-7-5-|
G |---------|    G |----------|    G |---------|    G |---------|
D |---------|x4  D |----------|x6  D |---------|x4  D |---------|x2
A |---------|    A |----------|    A |---------|    A |---------|
E |---------|    E |----------|    E |---------|    E |---------|


                                             (Slow down)
e |-7-------|    e |-8--------|    e |-7-------|    e |-5-------|
B |---8-7-5-|    B |---10-8-7-|    B |---8-7-5-|    B |---8-7-5-|
G |---------|    G |----------|    G |---------|    G |---------|
D |---------|x8  D |----------|x6  D |---------|x4  D |---------|x1
A |---------|    A |----------|    A |---------|    A |---------|
E |---------|    E |----------|    E |---------|    E |---------|

Gtr II intro (comes in on the second row of guitar 1’s part)

          x2           1st 2nd ß-endings
e |-------------------|---|----|
B |-------------------|---|----|
G |-------------------|---|----|
D |-------------------|---|----|
A |-------------------|---|----|
E |-0---5---8---5---8-|-5-|-10-|


Both Gtr’s
(1:04)
e |------------------------------------------------------------------------|
B |------------------------------------------------------------------------|
G |---9-12---9-12---9-12--9-12---9-12-----9-12---9-12---9-12---9-12---9-12-|
D |-9------9------9-----9------9------9-9------9------9------9------9------|
A |------------------------------------------------------------------------|
E |------------------------------------------------------------------------|

e |-------------------------------------------------------------------|
B |-------------------------------------------------------------------|
G |-----9-12---9-12---9-11b-(11)---11b---11---11h12-12-12-12-11-9-9-9-|
D |-9-9------9------9------------9-----9----9-------------------------|
A |-------------------------------------------------------------------|
E |-------------------------------------------------------------------|

VERSE (Gtr’s clean)
(1:20)              Do a slight palm mute
E |-7-------7-----7-----7-----7---8-------8-----8-----8-----8---7-------7--|
B |---5-5-5---5-5---5-5---5-5---5---5-5-5---5-5---5-5---5-5---5---5-5-5---5|
G |------------------------------------------------------------------------|
D |------------------------------------------------------------------------|
A |------------------------------------------------------------------------|
E |------------------------------------------------------------------------|

e |---5-----5-----5---7-------7------7h8--8--8-|
B |-5---5-5---5-5---5---5-5-5---5-5--5---------|
G |--------------------------------------------|
D |--------------------------------------------|
A |--------------------------------------------|
E |--------------------------------------------|
____________________________________________________________________________

(1:35)
…No I didn’t mean it…
e |-7-------|    e |-8--------|    e |-7-------|    e |-5-------|
B |---8-7-5-|    B |---10-8-7-|    B |---8-7-5-|    B |---8-7-5-|
G |---------|    G |----------|    G |---------|    G |---------|
D |---------|x4  D |----------|x6  D |---------|x4  D |---------|x2
A |---------|    A |----------|    A |---------|    A |---------|
E |---------|    E |----------|    E |---------|    E |---------|
____________________________________________________________________________

(1:50)
If you’ve ever lost a loved one…
E |-7-------7-----7-----7-----7---8-------8-----8-----8-----8---7-------7--|
B |---5-5-5---5-5---5-5---5-5---5---5-5-5---5-5---5-5---5-5---5---5-5-5---5|
G |------------------------------------------------------------------------|
D |------------------------------------------------------------------------|
A |------------------------------------------------------------------------|
E |------------------------------------------------------------------------|

e |---5-----5-----5---7-------7-----7-----8-------|
B |-5---5-5---5-5---5---5-5-5---5-5---5-5---5-5-5-|
G |-----------------------------------------------|
D |-----------------------------------------------|
A |-----------------------------------------------|
E |-----------------------------------------------|
____________________________________________________________________________

(Gtr’s gain) (2:05)
Cause there’s a sad and lonely comfort…
e |-7-------|    e |-8--------|    e |-7-------|    e |-5-------|
B |---8-7-5-|    B |---10-8-7-|    B |---8-7-5-|    B |---8-7-5-|
G |---------|    G |----------|    G |---------|    G |---------|
D |---------|x4  D |----------|x6  D |---------|x4  D |---------|x1
A |---------|    A |----------|    A |---------|    A |---------|
E |---------|    E |----------|    E |---------|    E |---------|
____________________________________________________________________________

CHORUS (low gain) (2:20)

e |-------------------------------------------------------------|
B |---3-5--5p3---3---3------------------------------------------|
G |-4----------4---4---4-2-2-0-2-----0-2---2--2h4p2p0-----------|
D |------------------------------0-2-----2------------2-0---0-2-|
A |-------------------------------------------------------2-----|
E |-------------------------------------------------------------|
____________________________________________________________________________

    N.H. (2:34)
E |-------------X-X-X-X-----|
B |-<8>-<8>-<8>-X-X-X-X-----|
G |-------------X-X-X-X-6-4-|
D |-------------------------|
A |-------------------------|
E |-------------------------|
____________________________________________________________________________

 (Sorta a verse 2 cuz u never know with HURT) (Gtr’s distortion)
e |-7-------|    e |-8--------|    e |-7-------|    e |-5-------|
B |---8-7-5-|    B |---10-8-7-|    B |---8-7-5-|    B |---8-7-5-|
G |---------|    G |----------|    G |---------|    G |---------|
D |---------|x4  D |----------|x6  D |---------|x4  D |---------|x1
A |---------|    A |----------|    A |---------|    A |---------|
E |---------|    E |----------|    E |---------|    E |---------|
____________________________________________________________________________

(2:50) And if you want this whole thing to sound perfect, I suggest a violinist
e |------------------------------------------------------------------------|
B |-----3-5--5p3---3---5-5-------------------------------------------------|
G |-4-4----------4---4-----4-2-2-0-2----2-4p2-4p2-2-4-2—2h4p2-0---0-----4-5|
D |-----------------------------------2-------------------------2---0-2----|
A |------------------------------------------------------------------------|
E |------------------------------------------------------------------------|

e |---|
B |---|
G |-4-|
D |---|
A |---|
E |---|
____________________________________________________________________________

BRIDGE (3:06) low gain, slight palm mute (occasionally let off)

E |-7-(play 16)--8-(play 16)--7-(play 8)--5-(play 8)--7-(play 8)--5-(play8)|
B |-5-(times  )--5-(times  )--5-(times )--5-(times )--5-(times )--5-(times)|
G |------------------------------------------------------------------------|
D |------------------------------------------------------------------------|
A |------------------------------------------------------------------------|
E |------------------------------------------------------------------------|


(Gtr’s distortion) (3:22)
e |-7-------|    e |-8--------|    e |-7-------|    e |-5-------|
B |---8-7-5-|    B |---10-8-7-|    B |---8-7-5-|    B |---8-7-5-|
G |---------|    G |----------|    G |---------|    G |---------|
D |---------|x4  D |----------|x6  D |---------|x4  D |---------|x1
A |---------|    A |----------|    A |---------|    A |---------|
E |---------|    E |----------|    E |---------|    E |---------|


CHORUS 2 (3:36) Gtr’s clean

e |---------------------------------------------------------------|
B |---3-5--5p3---3--5---------------------------------------------|
G |-4----------4------4-2-2-0-2------0-2---2--2h4p2---------------|
D |------------------------------0-2-----2------------------------|
A |---------------------------------------------------/13\--------|
E |---------------------------------------------------------------|
____________________________________________________________________________

VERSE 3 (3:52)
Guitar I (distortion)
e |-7-------|    e |-8--------|    e |-7-------|    e |-5-------|
B |---8-7-5-|    B |---10-8-7-|    B |---8-7-5-|    B |---8-7-5-|
G |---------|    G |----------|    G |---------|    G |---------|
D |---------|x4  D |----------|x6  D |---------|x4  D |---------|x2
A |---------|    A |----------|    A |---------|    A |---------|
E |---------|    E |----------|    E |---------|    E |---------|
                   |          |      |          |
                 e |----------|    e |----------|
                 B |----------|    B |----------|
      Gtr II     G |----------|    G |----------|
                 D |----------|x1  D |----------|x1
                 A |----------|    A |----------|
                 E |-5-7-6-7--|    E |-8-7-8-10-|

___________________________________________________________________________


Gtr I (4:07)
e |-7-------|    e |-8--------|    e |-7-------|    e |-5-------|
B |---8-7-5-|    B |---10-8-7-|    B |---8-7-5-|    B |---8-7-5-|
G |---------|    G |----------|    G |---------|    G |---------|
D |---------|x4  D |----------|x6  D |---------|x4  D |---------|x2
A |---------|    A |----------|    A |---------|    A |---------|
E |---------|    E |----------|    E |---------|    E |---------|

Gtr II   slight palm mute
e |-7-------|    e |-8-------|    e |-7-------|    e |-5-------|
B |---5-5-5-|    B |---5-5-5-|    B |---5-5-5-|    B |---5-5-5-|
G |---------|    G |---------|    G |---------|    G |---------|
D |---------|x4  D |---------|x6  D |---------|x4  D |---------|x2
A |---------|    A |---------|    A |---------|    A |---------|
E |---------|    E |---------|    E |---------|    E |---------|
____________________________________________________________________________

Gtr I (Play slower) (4:22)
e |-7-------|    e |-8--------|    e |-7-------|    e |-----5-7---------|
B |---8-7-5-|    B |---10-8-7-|    B |---8-7-5-|    B |-5-8-----8-7-5---|
G |---------|    G |----------|    G |---------|    G |---------------4-|
D |---------|x2  D |----------|x3  D |---------|x1  D |-----------------|x1
A |---------|    A |----------|    A |---------|    A |-----------------|
E |---------|    E |----------|    E |---------|    E |-----------------|

Gtr II
e |------------------------------------------------------------------------|
B |------------------------------------------------------------------------|
G |------------------------------------------------------------------------|
D |-2------------7-----------10-----------9----------10-----------12-------|
A |-2-(play 16)--7-(play 16)-10-(play 8)--9-(play 8)-10-(play 8)-12(play 8)|
E |-0-(times  )--5-(times  )--8-(times )--7-(times )--8—(times )-10(times )|
____________________________________________________________________________

Gtr II (4:38)
e |------------------------------------------------------------------------|
B |------------------------------------------------------------------------|
G |------------------------------------------------------------------------|
D |-2------------7-----------10-----------9----------10----------12--------|
A |-2-(play 16)--7-(play 16)-10-(play 8)--9-(play 8)-10-(play 8)-12(play 8)|
E |-0-(times  )--5-(times  )--8-(times )--7-(times )--8—(times )-10(times )|

Gtr I –you can barely here this over the violin and guitar II
e |-7-------|    e |-8--------|    e |-7-------|    e |-5-------|
B |---8-7-5-|    B |---10-8-7-|    B |---8-7-5-|    B |---8-7-5-|
G |---------|    G |----------|    G |---------|    G |---------|
D |---------|x4  D |----------|x6  D |---------|x4  D |---------|x2
A |---------|    A |----------|    A |---------|    A |---------|
E |---------|    E |----------|    E |---------|    E |---------|
____________________________________________________________________________

CHORUS 3 (5:08) Gtr’s I & II (clean)
e |------------------------------------------------------------------------|
B |-5--5p3---3--3h5----------------------3---------------------------------|
G |--------4--------4-2-2-0-2------0-2-4---2--2h4p2-0----------4------0---0|
D |----------------------------0-2--------------------2--4--0-2-----2---2--|
A |------------------------------------------------------------------------|
E |--------------------------------------------------------------5---------|
          YOUR FACE!!!!
e |-------------------|
B |-------------------|
G |-------------------|
D |-3h5--5p4—4h5--5h7-|
A |-------------------|
E |-------------------|
____________________________________________________________________________

VERSE 4 (5:39)
Gtr II
e |------------------------------------------------------------------------|
B |------------------------------------------------------------------------|
G |------------------------------------------------------------------------|
D |-2------------7-----------10-----------9----------10----------12--------|
A |-2-(play 16)--7-(play 16)-10-(play 8)--9-(play 8)-10-(play 8)-12(play 8)|
E |-0-(times  )--5-(times  )--8-(times )--7-(times )--8—(times )-10(times )|
____________________________________________________________________________

Gtr I (5:54)
e |-7-7-------------|   e |-8-8----------------|    e |-7-7------------|
B |-----8-8-7-7-5-5-|   B |-----10-10-8-8-7-7--|    B |-----8-8-7-7-5-5|
G |-----------------|   G |--------------------|    G |----------------|
D |-----------------|x2 D |--------------------|x3  D |----------------|x2
A |-----------------|   A |--------------------|    A |----------------|
E |-----------------|   E |--------------------|    E |----------------|

e |---------|
B |-7-8-5---|
G |-------4-|
D |---------|x1
A |---------|
E |---------|

Gtr II
e |------------------------------------------------------------------------|
B |------------------------------------------------------------------------|
G |------------------------------------------------------------------------|
D |-2------------7-----------10-----------9----------10----------12--------|
A |-2-(play 16)--7-(play 16)-10-(play 8)--9-(play 8)-10-(play 8)-12(play 8)|
E |-0-(times  )--5-(times  )--8-(times )--7-(times )--8—(times )-10(times )|
____________________________________________________________________________

OUTRO (6:10)
   Gtr I
E |-0--0-----0--0-0---0-0-0-0-0--------0--0--0-------------------|
B |-5--5p3---3--5-5p3-0-0-0-0-0--------0--0--0-------------------|
G |-4--3---4-4--4-4---4-2-2-0-2------0-2--2--0-2h4p2p0-----------|
D |------------------------------0-2-------------------2-0---0-2-|
A |--------------------------------------------------------2-----|
E |--------------------------------------------------------------|
   Gtr II
E |-------0-----0-----0-----0-----0-----0-----0-----0-----0-----0--0-----0-|
B |-------5-----5-----0-----0-----0-----0-----0-----0-----0-----5--5p3-0-5-|
G |-------4-4-4-4-4-4-2-2-2-2-2-2-2-2-2-2-2-2-2-2-2-2-2-2-2-2-2-4--4-----4-|
D |------------------------------------------------------------------------|
A |------------------------------------------------------------------------|
E |------------------------------------------------------------------------|
____________________________________________________________________________

Gtr I (6:24)
E |-0--0-----0--0-0---0-0-0-0-0--------0--0--0-------------------|
B |-5--5p3---3--5-5p3-0-0-0-0-0--------0--0--0-------------------|
G |-4--3---4-4--4-4---4-2-2-0-2------0-2--2--2-2h4p2p0-----------|
D |------------------------------0-2---------2---------2-0---0-2-|
A |------------------------------------------0-------------2-----|
E |--------------------------------------------------------------|

Gtr II
E |-------0-----0-----0-----0-----0-----0-----0-----0-----0-----0--0-----0-|
B |-------5-----5-----0-----0-----0-----0-----0-----0-----0-----5--5p3-0-5-|
G |-------4-4-4-4-4-4-2-2-2-2-2-2-2-2-2-2-2-2-2-2-2-2-2-2-2-2-2-4--4-----4-|
D |------------------------------------------------------------------------|
A |------------------------------------------------------------------------|
E |------------------------------------------------------------------------|
Tap to rate this tab
# A B C D E F G H I J K L M N O P Q R S T U V W X Y Z