Song name
# A B C D E F G H I J K L M N O P Q R S T U V W X Y Z

Husking Bee - Walk tab

Hey this is my first tab so if i f**k up on some part
of the song please let me know.Anyway this band has
really inspired me alot.
They are really f**king good and i wish they would get
heard more here(USA). I got the verse down and maybe
the bridge and the chorus but the intro does not
sound right.It seems really close but im not sure.
But lets get on with the tab!

Husking Bee - Walk

Tuning Standard (EADGBe)

Intro

What i do here is go C to A and C.
I know its not right but if some one knows let me know.

Chords Cmaj-Am-?
e--0-0-0-----0-0-0-1---------------------------|
B--1-1-1-----1-1-1-1---------------------------|
G--0-0-0-----2-2-0-0---------------------------|
D--2-2-2-----2-2-2-2---------------------------|
A--3-3-3-----0-0-3-3---------------------------|
E----------------------------------------------|


Verse

e----------------------------------------------|
B----------------------------------------------|
G--5555555-----------------5555555-------------|
D--5555555-3333333-5555555-5555555-------------|
A--3333333-3333333-5555555-3333333-------------|
E----------1111111-3333333---------------------|

e----------------------------------------------|
B----------------------------------------------|
G----------55---------55---------55------------|
D--7777777-55-3333333-55-5555555-55-7777777----|
A--7777777-33-3333333-33-5555555-33-7777777----|
E--5555555----1111111----3333333----5555555----|  Repeat


Chorus

Not sure but sounds really close
e-----------------------------------------------------------|
B------------------------------------------------------8----|
G------------------1212--10-101010--4444444--5--7--55--7----|
D--10101010101010--1212--10-101010--5555555--5--7--55--5----|
A--10101010101010--1010--8--8-8-8---5555555--3--5--33-------|
E--8-8-8-8-8-8-8--------------------3333333-----------------|
Repeat once more than back to the Verse


Bridge

I Think its Am than to Cmaj

e--000000000--00000000--|
B--111111111--11111111--|
G--222222222--00000000--|
D--222222222--22222222--|
A--000000000--33333333--|
E-----------------------|
Repeat than
e----------------------------------------|
B----------------------------------------|
G--------------------------5~------------|
D--7-77777777--5-55555555--5-------------|let it ring
A--7-77777777--5-55555555--3~------------|
E--5-55555555--3-33333333----------------|
Than you go back to intro to Verse

Last Verse
also the last chord on the last verse is E open

e----------------------------------------------|
B----------------------------------------------|
G----------55---------55---------55------------|
D--7777777-55-3333333-55-5555555-55-2222222----|
A--7777777-33-3333333-33-5555555-33-2222222----|
E--5555555----1111111----3333333----0000000----|
than its back to normal

Last Chorus

Same thing as the Chorus but it ends before --8--
                                            --7--
                                            --5--

e---------------------------------------------------------|
B---------------------------------------------------------|
G------------------1212--10-101010--4444444--5--7--55-----|
D--10101010101010--1212--10-101010--5555555--5--7--55-----|
A--10101010101010--1010--8--8-8-8---5555555--3--5--33-----|
E--8-8-8-8-8-8-8--------------------3333333---------------| END


Intro  x2
Verse  x2
Chorus x2
Verse  x2
Bridge x1
Intro  x1
Verse  x2
Last Verse x1
Chorus x1
Last Chorus x1

Thanks for reading i work hard I'll try to update it if you guys say something
or whenever
Thanks Again!!!
HB 4 LIFe


http://www.keikaku.net/profiles/19/
Tap to rate this tab
# A B C D E F G H I J K L M N O P Q R S T U V W X Y Z