Song name
# A B C D E F G H I J K L M N O P Q R S T U V W X Y Z

Hymn - Come Thou Fount Of Every Blessing tab

The top tab contains a fingerpicking pattern in the key of C. The chords are mentioned 
above the tab that should be administered while picking out the melody.

The (lead) part at the bottom is the same melody moved up the fretboard to give another 
guitarist the ability to fill in the fingerpicking part.

Standard Tuning

  C                       G       C       F  C
E|----------------------------------------------------------|
B|----------------------------------------------------------|
G|-----------------------0---------------0--2--0------------|     (REPEAT)
D|--0h2--0----------0h2-----0--0----0h2----------0h2--0-----|
A|----------3--3-----------------------------------------3--|
E|----------------------------------------------------------|


    C         Em   F C  F  C         C        Em   F C
E|-----------------------------------------------------------|
B|-----------------------------------------------------------|
G|-------0/5--4--4p2p0--2--0-------------0/5--4--4p2p0/5-----|(5)
D|--0h2-----------------------2------0h2---------------------|(5)
A|-----------------------------------------------------------|
E|-----------------------------------------------------------|


    C                       G       C       F  C
E|-------------------------------------------------------------|
B|-------------------------------------------------------------|
G|-----------------------0---------------0--2--0---------------|
D|--0h2--0----------0h2-----0--0----0h2----------0h2--0--------|
A|----------3--3-----------------------------------------3-----|
E|-------------------------------------------------------------|

Lead Melody

Riff 1
E|--------------------------------------------------------------|
B|-----------------------8----------------8--10--8--------------|
G|--7/9/7--5--5v----7/9-----7--7v----7/9------------7/9--7--5---|   (REPEAT)
D|--------------------------------------------------------------|
A|--------------------------------------------------------------|
E|--------------------------------------------------------------|


Riff 2
E|--------------------------------------------------------------------|
B|-------8/13--12--12p10--8/10\8-------------8/13--12--12p10--8/13----|v
G|--7/9---------------------------9v----7\9---------------------------|
D|--------------------------------------------------------------------|
A|--------------------------------------------------------------------|
E|--------------------------------------------------------------------|

Repeat Riff 1


This is my first submission, but if there are any questions or comments on how to make 
this a better tab, please let me know by commenting or emailing me at preacher5082000@yahoo.com
Tap to rate this tab
# A B C D E F G H I J K L M N O P Q R S T U V W X Y Z