Song name
# A B C D E F G H I J K L M N O P Q R S T U V W X Y Z

Hymn - Will The Circle Be Unbroken tab

okay this is how it should sound. Play it to http://www.youtube.com/watch?v=9F1l6xXLSI0 
and you'll really figure out the kinks. Bear with me never made tabs before Hope this 
doesn't come out too janked up.
So find out the pacing cause I've never made a tab before and this is sorta sloppy 
because I have school. It's a slower paced song, add in some hammer ons and pull offs where 
you see fit. It's an old hymn so you can add that flavor to it. Have fun


E|-----------------------|
B|-1-------1-----------1-|
G|-0-------0-----------0-|
D|-2-----2---0h2p0---2---|
A|-3---3-----------3-----|
E|-----------------------|



E|---------------------|
B|---------1---------1-|
G|-------2---2-------0-|
D|-0-2-3-------3---2---|
A|---------------3-----|
E|---------------------|



E|----------------------------------------|
B|----------1---------1---------1-----3---|
G|----------0---------2---------0-----0---|
D|-------2----------2---------2-----0-----|
A|---0-3------3-2-0-----0-2-3-------------|
E|-3------------------------------3-------|



E|-------|
B|-----1-|
G|-----0-|
D|---2---|
A|-3-----|
E|-------|
Tap to rate this tab
# A B C D E F G H I J K L M N O P Q R S T U V W X Y Z