Song name
# A B C D E F G H I J K L M N O P Q R S T U V W X Y Z

Hypocrisy - Eraser tab

-----------------------------------------------------------------------------
			     Eraser - Hypocrisy
-----------------------------------------------------------------------------
Tabbed by:Clancy 13



e|--------------------------------------------------------------------------|
B|--------------------------------------------------------------------------|
G|---------------------------------------------------------------------------
D|--------------------------------------------------------------------------|
A|------2-------2-1-2-1------2-------2-1-2-1------2-------2-1-2-1-----------|
E|-0-2-3--0-2-3---------0-2-3--0-2-3---------0-2-3--0-2-3-------------------|

repeat this 4 times(CLEAN)

e|--------------------------------------------------------------------------|
B|--------------------------------------------------------------------------|
G|------2-------2-1-2-1------2-------2-1-2-1------2-------2-1-2-1-----------|
D|-0-2-3--0-2-3---------0-2-3--0-2-3---------0-2-3--0-2-3-------------------|
A|--------------------------------------------------------------------------|
E|--------------------------------------------------------------------------|

e|--------------------------------------------------------------------------|
B|--------------------------------------------------------------------------|
G|------2-------2-1-2-1------2-------2-1-2-1------2-------2-1-2-1-----------|
D|-0-2-3--0-2-3---------0-2-3--0-2-3---------0-2-3--0-2-3-------------------|
A|--------------------------------------------------------------------------|
E|--------------------------------------------------------------------------|

e|--------------------------------------------------------------------------|
B|--------------------------------------------------------------------------|
G|------2-------2-1-2-1------2-------2-1-2-1------2-------2-1-2-1-----------|
D|-0-2-3--0-2-3---------0-2-3--0-2-3---------0-2-3--0-2-3-------------------|
A|--------------------------------------------------------------------------|
E|--------------------------------------------------------------------------|

e|--------------------------------------------------------------------------|
B|--------------------------------------------------------------------------|
G|------2-------2-1-2-1------2-------2-1-2-1------2-------2-1-2-1-----------|
D|-0-2-3--0-2-3---------0-2-3--0-2-3---------0-2-3--0-2-3-------------------|
A|--------------------------------------------------------------------------|
E|--------------------------------------------------------------------------|


repeat as needed
Tap to rate this tab
 
# A B C D E F G H I J K L M N O P Q R S T U V W X Y Z