Song name
# A B C D E F G H I J K L M N O P Q R S T U V W X Y Z

Hypothermia - Svenskt Vemod tab

"svenskt vemod" by Hypothermia

   Intro:
e |--------------------------------------------------------------|
b |--------------------------------------------------------------|
g |--------0--------3-------0----------0--------------0----------|
d |--1-1----1--1------0---3--3/1---1-------1----0--------0-------|
a |-----------1--1----------------3-3-----3---1---1----1---------|
e |--------------------------------------------------------------|

Then strum these chords:
g |--0-----------|
d |--1-----------|
a |--1-----------|

g |--3------------|
d |--1------------|
a |---------------|

g |--0------------|
d |--3------------|
a |---------------|

g |--0-----------|
d |--1-----------|
a |--3-----------|

g |--0-----------|
d |--0-----------|
a |--1-----------|


Other riff: Use these chords:
e |--------------------------------------|
b |--------------------------------------|
g |--0----0----0----0----0---------------|
d |--0----3----0----0----0---------------|
a |--1----1----3----1----0---------------|
e |--------------------------------------|
Tap to rate this tab
# A B C D E F G H I J K L M N O P Q R S T U V W X Y Z