Song name
# A B C D E F G H I J K L M N O P Q R S T U V W X Y Z

I Hate Kate - Something Better tab

So basically there are 2 parts to this intro.
You play part 1 once and then repeat until the guy starts to sing, and its played later 
the song.


Part 1:
e|---------------------------------------|
B|--------13---12------------------------|
G|--------------------9----12--12----9---|
D|---------------------------------------|
A|---------------------------------------|
E|---------------------------------------|


Part 2:
e|---------------------------------------|
B|--13--13--12--12-----------------------|
G|------------------9--9--12--12--9------|
D|---------------------------------------|
A|---------------------------------------|
E|---------------------------------------|


SBDU Hollywood
Tap to rate this tab
# A B C D E F G H I J K L M N O P Q R S T U V W X Y Z