Song name
# A B C D E F G H I J K L M N O P Q R S T U V W X Y Z

I Hate Myself - Caught In A Flood With The Captain Of The Cheerleading Squad tab

http://www.myspace.com/noidearecords  
they are signed to the record lable "No Idea"

I hate myself - Caught In A Flood With The Captain Of The Cheerleading Squad
Credit: Billybusa (me) and DressingCold for the very beginning 
Tuning:Standard

E||-------------------------|-------------------------------|
B||-------------------------|-------------------------10----|
G||-------------11----------|--11---------------------------|
D||-------12----------12----|-----12---12-------12----------|
A||--9----------------------|--------9----10----------------|
E||-------------------------|-------------------------------|

--------------------|----------------------------|----------|
--------10----------|----------------------------|----------|
--------------------|-------------11----------11-|----------|
--12-------12----12-|-------12----12----12-------|--12---12-|
--------------10----|--9--9----------------------|-----9----|
--------------------|----------------------------|----------|

----------------------------------|-------------------------|
----------------10br------10------|-------------------------|
----------------------------------|-------------11----------|
---------12------------------12---|-------12----12----12----|
--10--10----10--------------------|--9-----9----------------|
----------------------------------|-------------------------|

----------------------------------|----------------------|
----------------------------10----|----10----------------|
--11-11-11-11---------------------|----11----11-------11-|
--12-12-12-12---------12----------|----------12-12-12-12-|
----------------10----------------|-------------12--9----|
----------------------------------|----------------------|
 
------------------------------|--------------------------------------|------|
------------------------------|--------------------------------------|------|
---------------11----------11-|--9--9-14----11--11--11--14-14-14-14--|--11--|
-------12---12-12----12-------|--x--x--x-----x---x---x---x--x--x--x--|---x--|
--9--9----9-------------------|--7--7-12-----9---9---9--12-12-12-12--|---9--|
------------------------------|--------------------------------------|------|

br = bend release
Tap to rate this tab
# A B C D E F G H I J K L M N O P Q R S T U V W X Y Z