Song name
# A B C D E F G H I J K L M N O P Q R S T U V W X Y Z

Ice Age - Sleepwalker tab

#-----------------------------------------------------------------------------#
#-- File created with Instab - http://www.pconline.com/~smcarey/instab.html --#
#-----------------------------------------------------------------------------#

Author/Artist: Ice Age
Title: Sleepwalker
Album: The Great Divide
Transcribed by: Daniel Ocon
----------------------------------|---------------------------------|---------|
----------------------------------|------------h---6-5--------------|---------|
-----7------h---5-4---------5-4---|-----7-----5-7---------7---------|---------|
---0-------5-7---------7--------7-|---0-----------------5---5-7-5---|---------|
-5------5------------5---5--------|-5------5----------------------8-|---------|
----------------------------------|---------------------------------|---------|
  Rhy. 1

----------------------------------|---------------------------------|---------|
----------------------------------|------------h---6-8-6-----8-6----|---------|
-----7------h---5-4---------5-4---|-----7-----5-7---------7------7--|---------|
---0-------5-7---------7--------7-|---0-----------------------------|---------|
-5------5------------5---5--------|-5------5------------------------|---------|
----------------------------------|---------------------------------|---------|
Tap to rate this tab
# A B C D E F G H I J K L M N O P Q R S T U V W X Y Z