Song name
# A B C D E F G H I J K L M N O P Q R S T U V W X Y Z

Iggy Pop - Gimme Danger tab

Song: Gimme Danger
Artist: Iggy Pop

Tuning: Standard/EBGDAE

-This is a great song, listen to a recording for timing and rhythm.
-You can pick the notes out the chords or simply strum. Either way it sounds good.
-I Apologise for not having been able to work out every part.
-Email me at Cosmic_line_rental@hotmail.com with any queries

Intro Riff:
    Em9     D       G      A
E|---2--------0------3------------|
B|----0--------3------0-------2---|
G|-----0----2---2------0-------2--|
D|----------0-------------2-----2-|
A|-2----------------------0-------|
E|-0---------------3--------------|

Verse Riff:
  E A E    G        C
E|---------------------|
B|-------------------1-|
G|------------------0--|
D|------------0----2---|
A|2-4-2--------0--3----|
E|0-0-0---0-3----------|

E      A    E  G     C
gimme danger, little stranger

E      A    E  G     C
and I'll give you a piece

E      A    E  G     C
gimme danger, little stranger

E      A    E  G     C
and I'll feel your disease...


Enjoy
Tap to rate this tab
# A B C D E F G H I J K L M N O P Q R S T U V W X Y Z