Song name
# A B C D E F G H I J K L M N O P Q R S T U V W X Y Z

Iggy Pop - Corruption tab

Corruption by Iggy Pop
Avenue B


e---------------------------|
B---------------------------|    This is the main riff, repeated throughout 
G---------------------------|    the song.
D-6-6-6--------6-6-6--------|
A-4-4-4-----2--4-4-4------2-|
E-------2-4----------2-4----|

Chorus
e-------------------|
B-------------------|
G-9--4--6--9--4--6--|
D-9--4--6--9--4--6--|
A-7--2--4--7--2--4--|
E-------------------|

Solo
e--------------------------9-12---------------------7-9-|
B---------------------9-12----------------------7-9-----|
G----------------9-11-----------------------6-9---------|
D-----------9-11------------------------6-9-------------|
A------9-11-------------------------7-9-----------------|
E-9-12--------------------------7-9---------------------|


That's about it

Tabbed by Ben Shutt

Please comment on any corrections
Tap to rate this tab
# A B C D E F G H I J K L M N O P Q R S T U V W X Y Z