Song name
# A B C D E F G H I J K L M N O P Q R S T U V W X Y Z

Igor Stravinsky - Firebird - Lullaby tab

stravinsky's firebird suite

|-------------|-------------|
|-------------|-------------|
|-4--2--4--5--|-4--2--4--5--|
|-2-----------|-2-----------|
|-------------|-------------|
|-0===========|=============|

( )is apoyando picking
|--------------0-|------------------|
|-(0)----0---1---|-(0)-(4)(0)-0-----|
|-------(7)-(5)--|-----------(9)----|
|--2--7----------|--2---7--------10-|
|----------------|------------------|
|--0-------------|------------------|

|----------(1)(0)(0)--|-(0)-(1)-(2)(1)(0)-(0)-----|
|(0)-(7)------------1-|---------------------------|
|---------4-------5---|--4-------2---------4--5---|
|-2---7---------------|--2------------------------|
|---------------------|---------------------------|
|---------------------|---------------------------|

|--9--(8)(7)-(3)-----|--(9)(8)(7)(3)-----|
|-10-----------------|-0-----------------|
|--0---5------6---5--|-0----5-----6---5--|
|--9-----------------|-7-----------------|
|--7-----------------|-7-----------------|
|--0-----------------|-0-----------------|

|--------------0-|------------------|
|--0-----0---1---|-(0)-(4)(0)-0-----|
|-------(7)-(5)--|-----------(9)----|
|--0--7----------|--2---7--------10-|
|--7-------------|------------------|
|--0-------------|------------------|

|----------(1)(0)(0)--|-(0)-1-(2)(1)(0)-(0)-----|
|-0--(7)------------1-|-------------------------|
|---------4-------5---|--4-----2---------4--5---|
|-0---7---------------|--2----------------------|
|-7-------------------|-------------------------|
|-0-------------------|-------------------------|

|--9--(8)(7)-3-----|--(9)(8)(7)(3)-----|
|-10---------------|-0-----------------|
|--0---5-----6--5--|-0----5-----6---5--|
|--9---------------|-7-----------------|
|--7---------------|-7-----------------|
|--0---------------|-0-----------------|

|---9-8-7-3----|----7--6--5-4h5--------- --------|
|-0---5--------|----------------6------- ----3h6-|
|-0-------6--5-|-2-----3----4------3---- 2/3-----|
|-0------------|-0---------------------- --------|
|-7------------|------------------------ 3-------|
|--------------|------------------------ --------|

alternate picking by index finger nail(1-4th strings)
////// //////
|-5------5-----5--5--|-5--4--3-5-4-3---|
|-3------3-----3--3--|-3--3--3---3-----|
|-3------4-----5--4--|-3--4--5---4-----|
|-3------3-----3--3--|-3--3--3---3-----|
|-3------------------|-----------------|
|-3------------------|-----------3-----|

|-0--0--0--0--|-0--1--1--1------------|
|-4--4--4--5--|-5--4--3--3--------3h5-|
|-0--2--1--0--|-2--2--2--3----2/3-----|
|-1--0--0--2--|-3--3--3--0------------|
|-3-----------|-0---------------------|
|-4-----------|-----------------------|

|-5--5--5--5--|-5--4--3-5-4-3---|
|-3--3--3--3--|-3--3--3---3-----|
|-3--4--5--4--|-3--4--5---4-----|
|-3--3--3--3--|-3--3--3---3-----|
|-3-----------|-----------------|
|-3-----------|-----------3-----|
//////
|-0--------0-0-0-0-0-0-0-0-0-0-0-0-0-0-0-0-0-0-|
|-4--------4-4-4-4-4-4-4-4-4-4-4-4-4-4-4-4-4-4-|
|-0--------0-----------2-----1-----0-----------|
|-1--------------1-----------------------1-----|
|-2--------------------------------------------|
|-4--------------------------------------------|

|-12--11--10-------|-12-11---10------|
|-------------11---|-------0-----11--|
|----------7-----9-|-----8----9------|
|-------------10---|-----------------|
|------------------|-----------------|
|--0---------------|--0--------------| 
Tap to rate this tab
# A B C D E F G H I J K L M N O P Q R S T U V W X Y Z