Guitaretab - guitar tabs
Song name
# A B C D E F G H I J K L M N O P Q R S T U V W X Y Z

In Flames - Metaphor tab

In Flames - Metaphor
Album: Reroute to Remain
Tuning: Standard

the original version is 2 guitars but this is almost the same



riff 1 (everything is acoustic)
|---------2----------------------------|
|---------2----------------------------|
|-2-------2----------------------------|
|---4---------4-7-4-/9--7--6-7-6-------|
|-----4--------------------------9--9--|
|-------2------------------------------|
[ Tab from: http://www.guitaretab.com/i/in-flames/34216.html ]
riff 2
|---------2----------------------|
|---------2----------------------|
|-2-------2----------------------|
|---4---------4-7-4-/9--7--7--9--|
|-----4--------------------------|
|-------2------------------------|

riff 1
|---------2----------------------------|
|---------2----------------------------|
|-2-------2----------------------------|
|---4---------4-7-4-/9--7--6-7-6-------|
|-----4--------------------------9--9--|
|-------2------------------------------|

riff 3
|---------------------------|
|-----------------------0---|
|----------2----------------|
|-------2------------6----6-|
|----4------------7---------|
|-5------------4------------|

play every riff x2

Related for Metaphor tab
Advertisement will be closed in 10 seconds