Song name
# A B C D E F G H I J K L M N O P Q R S T U V W X Y Z

Incubus - Anything tab

This is a song that was left over from morning view, you can tell by the Paul Reed Smith 
mike displays.

Incubus-Anything

|-----------------------------------------------------|
|-----------------------------------------------------|
|----------------------------9--9--11-11--9-----------|
|----------------------------9--9---9--9---9----------|
|-0-h-1-/---9--9---7--7--7--7---7--7---7--------------|
|-0-h-2-/--10-10--5--5--------------------------------|

|-------------------------|
|-----------0-------------|
|--------0----------------|
|------9------9-----------|
|---7-----------7---------|
|-7-----------------------|

tabbed by Casey Jaszewski
Tap to rate this tab
# A B C D E F G H I J K L M N O P Q R S T U V W X Y Z