Guitaretab - guitar tabs
Song name
# A B C D E F G H I J K L M N O P Q R S T U V W X Y Z

Incubus - Idiot Box tab

INCUBUS  IDIOT BOX
By chris miller

Standard Tuning

Chorus/Intro
e|---------------------------------------------------------------------------|
B|---------------------------------------------------------------------------|
G|-7----8-5--7----8-5--------------------------------------------------------|
D|-7----8-5--7----8-5--7----7-5--8--10--10---xxxx-x--------------------------|
A|-5----6-3--5----6-3--7----7-5--8--8---8----xxxx-x--------------------------|
E|-5----6-3--5----6-3--5----5-3--6--6---6----xxxx-x--------------------------|

Verse
e|-14-------7-------4---------------2----------------------------------------|
B|-13-------6-------3-----------1-----1--------------------------------------|
G|-14-------7-------4---------2---2-----2------------------------------------|
D|--------------------------0------------------------------------------------|
A|---------------------------------------------------------------------------|
E|---------------------------------------------------------------------------|

Interlude
e|-14------------------------------------------------------------------------|
B|-13------15-16-15----------------------------------------------------------|
G|-14---------------15-16-15-------------------------------------------------|
D|---------------------------------------------------------------------------|
A|---------------------------------------------------------------------------|
E|---------------------------------------------------------------------------|
[ Tab from: http://www.guitaretab.com/i/incubus/21286.html ]
Post-Interlude
e|---------------------------------------------------------------------------|
B|---------------------------------------------------------------------------|
G|---------------------------------------------------------------------------|
D|-xx5-5-5-5-5-5-5-5-5-5-5-5-5-5xx5-5-5-5-5-5-5-5-5-5-5-5-5-5----------------|
A|-xx5-5-5-5-5-5-5-5-5-5-5-5-5-5xx5-5-5-5-5-5-5-5-5-5-5-5-5-5----------------|
E|-xx3-3-3-3-3-3-3-3-3-3-3-3-3-3xx3-3-3-3-3-3-3-3-3-3-3-3-3-3----------------|

After Post-Interlude
e|---------------------------------------------------------------------------|
B|---------------------------------------------------------------------------|
G|----------------------7-7-7-7-7-7-7-7-7-7-7-7-7----------------------------|
D|-14-------7-------4---7-7-7-7-7-7-7-7-7-7-7-7-7----------------------------|
A|-13-------6-------3---5-5-5-5-5-5-5-5-5-5-5-5-5----------------------------|
E|-14-------7-------4---5-5-5-5-5-5-5-5-5-5-5-5-5----------------------------|

Last Chorus
e|-----------------------------------------------------------------------------------|
B|----------------------(5(5(5(5)----------------------------------------------------|
G|-7-x-x-7-x-x-8-x-5-x-7-x-x-x-x-7-x-x-8-x-5-----------------------------------------|
D|-7-x-x-7-x-x-8-x-5-x-7-x-x-x-x-7-x-x-8-x-5-x-7-x-x-x-x-7-x-x-5-x-8--10-xxxxxxxxxxx-|
A|-5-x-x-5-x-x-6-x-3-x-5-x-x-x-x-5-x-x-6-x-3-x-7-x-x-x-x-7-x-x-5-x-8-8--xxxxxxxxxxx-|
E|-5-x-x-5-x-x-6-x-3-x-5-x-x-x-x-5-x-x-6-x-3-x-5-x-x-x-x-5-x-x-3-x-6--6--xxxxxxxxxxx-|
		()-harm.

Song Structure

Intro(x2)
Verse(x3)
Chorus(x2)
Verse(x3)
Chorus(x3)
Interlude(x4)
Post-Interlude(x2)
After Post-Interlude(x1)
Chourus(x3)
Last Chorus(x2)
Related for Idiot Box tab