Song name
# A B C D E F G H I J K L M N O P Q R S T U V W X Y Z

Incubus - Punchdrunk tab

So this is just what I could make out from the intro and a bit of the verse & chorus. I 
its pretty accurate.. feel free to comment :] Machtheghost@gmail.com

Intro
e|-------------------------------------------------------------|
b|-------------------------------------------------------------|
g|--------6-666h7-6h7-6----------------------------------------|
d|-----5--5-555-5-5-5-5--------5-555-7-5-5-7-5-----------------|
a|--5h7-7-------------------4----------------------------------|
e|-----------------------3h5-5---------------------------------|

For the verse and chorus I could make out these two chords...

e|------      e|--0---|
b|--10--      b|--8---|
g|--9---  &   g|--9---|
d|--10--      d|--10--|
a|--8---      a|--10--|
e|------      e|------|

As for the change up's, picking on the verses and the solo.. you can figure those out 
arent too hard
Tap to rate this tab
# A B C D E F G H I J K L M N O P Q R S T U V W X Y Z