Song name
# A B C D E F G H I J K L M N O P Q R S T U V W X Y Z

Incubus - Make Your Self tab

this song is alot more simple than most people think.  because most people play it wrong.  here is the definite correct way to play it
verse
e/---------------------------------------------------------------
b/---------------------------------------------------------------
g/---------------------------------------------------------------
d/--9---5-5---5-5----8-8-7-9---5-5----5-5----8-8-8-8-7-----------
a/--9---5-5---5-5----8-8-7-9---5-5----5-5----8-8-8-8-7-----------
d/--9---5-5---5-5----8-8-7-9---5-5----5-5----8-8-8-8-7-----------

bridge 1
-----------------------------------------------------------------
-----------------------------------------------------------------
-----------------------------------------------------------------
-0---0---0-0-8-8---8-8-5-5---5---5---5--5-5----------------------
-0---0---0-0-8-8---8-8-5-5---5---5---5--5-5----------------------
-0---0---0-0-8-8---8-8-5-5---5---5---5--5-5----------------------

verse 2 same as verse 1

chorus
-----------------------------------------------------------------
-----------------------------------------------------------------
-----------------------------------------------------------------
-0---0---0-0-8-8---8-8-5-5---5---5---5--5-5---5-5-5--------------
-0---0---0-0-8-8---8-8-5-5---5---5---5--5-5---5-5-5--------------
-0---0---0-0-8-8---8-8-5-5---5---5---5--5-5---5-5-5--------------

-----------------------------------------------------------------
-----------------------------------------------------------------
-----------------------------------------------------------------
-0---0---0-0-8-8---8-8-5-5---5--5-5---3-3---3-3-3----------------
-0---0---0-0-8-8---8-8-5-5---5--5-5---3-3---3-3-3----------------
-0---0---0-0-8-8---8-8-5-5---5--5-5---3-3---3-3-3----------------

bridge 2
-----------------------------------------------------
-----------------------------------------------------
-----------------------------------------------------
-9---------------------------------------------------
-7---9---4---5---------------------------------------
-----9---7---8---------------------------------------
Tap to rate this tab
# A B C D E F G H I J K L M N O P Q R S T U V W X Y Z