Song name
# A B C D E F G H I J K L M N O P Q R S T U V W X Y Z

Incubus - Have You Ever tab

"Have You Ever"
Incubus
transcribed by : Matt Hritz
abyss1212@hotmail.com

Intro

E|----------------------||
B|----------------------||
G|----------------------||
D|----------------------||
A|-0-5-0-5-0-5----------||
D|-0-5-0-5-0-5----------||


E|---------------------------------||
B|---------------------------------||
G|---------------------------------||
D|---------------------------------||
A|-0-5-0-5-0-5-5-5-0-0-0-3/8-8-----||
D|-0-5-0-5-0-5-5-5-0-0-0-3/8-8-----||

Verse

E|--------------------------------------------------------||
B|--------------------------------------------------------||
G|--------------------------------------------------------||
D|----------------------------------------8-8-8-8-8-8-8---||
A|-1-1-1-0-1-5-5-7-7-3-3-5-5-0-1-1-1-0-1--8-8-8-8-8-8-8---||
D|-1-1-1-0-1-5-5-7-7-3-3-5-5-0-1-1-1-0-1--8-8-8-8-8-8-8---||

Chorus

E|----------------------------------------------------||
B|----------------------------------------------------||
G|---------5/7-7-7-7-7-7------------------------------||
D|---------5/7-7-7-7-7-7------------------------------||
A|-0h3-3p0-3/5-5-5-5-5-5--8-8-8-5-5-3-3-3-3-3-3-3-3---||
D|-0h3-3p0----------------8-8-8-5-5-3-3-3-3-3-3-3-3---||

E|----------------------------------------------------||
B|----------------------------------------------------||
G|---------5/7-7-7-7-7-7------------------5-5-5-5-5---||
D|---------5/7-7-7-7-7-7------------------5-5-5-5-5---||
A|-0h3-3p0-3/5-5-5-5-5-5--8-8-8-5-5-3-3-3-3-3-3-3-3---||
D|-0h3-3p0----------------8-8-8-5-5-3-3-3-------------||

Bridge

E:-----------------------------------------||
B:-----------------------------------------||
G:--------------------7--------0-----------||
D:----3-----10----0-------3---------5---7--||
A:---3-----8-----0-------3----8----5-------||
D:--3-----8-----0-------3----8----5--------||
Tap to rate this tab
# A B C D E F G H I J K L M N O P Q R S T U V W X Y Z