Guitaretab - guitar tabs
Song name
# A B C D E F G H I J K L M N O P Q R S T U V W X Y Z

Incubus - Priceless tab

-------------------------------------------------------------------------------
			     Priceless - Incubus
-------------------------------------------------------------------------------
Tabbed by: DirkLance
Email: keithnate@AOL.com

Tuning: Standard (EADGBe)

I know there's already a five star tab up here, and no offense to the guy who made it, 
it just seems kinda complicated and hard to read.  I have a "simpler" version, but I'm 
positive it's 100% correct...just check it out and let me know.

Intro/Chorus: (To get the right sound here, you want to have a "dirty" sound, so find a 
overdrive, or a light distortion, and chug away.  The tabbing here is pretty 
might take a pinch of practice to get the speed down, but besides that, it's just a fun, bouncy riff.  And yes...I'm positive about the end part...listen close, it's there.)

e|--------------------------------------------------------------------------|
B|--------------------------------------------------------------------------|
G|------x-x----------------------------2------------------------------------|
D|------x-x-------4---------4-4----------5----------4--------4-4-------2-4-5|
A|------x-x-------3---------3-3--0-3-4--------------3--------3-3-0-3-4------|
E|------x-x--5-0------0-5-0-----------------0---5-0----0-5-0----------------|


e|---------------------------------------------------------------0----------|
B|---------------------------------------------------------0----------0-----|
G|------------------------------2----------------------------2-3---3--0-----|
D|---------4---------4-4----------5----------4--------4-4-------------------|
A|---------3---------3-3--0-3-4--------------3--------3-3-------------------|
E|----5-0------0-5-0-----------------0---5-0----0-5-0-----------------------|

Verse: (Play the first part three times, and then play the last part on the fourth time.)

e|-------------------------------------------|
B|-------------------------------------------|
G|-------------------------------------------|
D|------5--------5-5-------------------------|
A|------3--------3-3-------------------------|
E|--5-0----0-5-0-----0-3-4-5-4-3-------------|


e|-------------------------------------------|
B|-------------------------------------------|
G|-------------------------------------------|
D|------5--------5-5-5-5-5-5-5-5-------------|
A|------3--------3-3-3-3-3-3-3-3-------------|
E|--5-0----0-5-0-----------------------------|

Pre-Chorus:

e|-----------------------------------------|
B|-----------------------------------------|
G|------5---5---5---5---5---5---5---5------|
D|-----(2)-(2)-(2)(2)(2)(2)(2)(2)-----|
A|------5---5---5---5---5---5---5---5------|
E|-----------------------------------------|

e|-----------------------------------------|
B|----------------------7-7-7-7------------|
G|------5---5---5---5---5-5-5-5------------|
D|-----(2)-(2)-(2)(2)-4-4-4-4------------|
A|------5---5---5---5---5-5-5-5------------|
E|-----------------------------------------|

Breakdown/Interlude: (You can flip your overdrive/distortion off for this part. It's not 
to describe this part with words, but the tabbing is pretty solid. Just TRUST me...I'm 
positive this is correct.)

e|----------8--------------5----------8----------------5--3--------|
B|---------x8h10p8-------8--7-------x---8h10p8--------x---4-------|
G|--------5--------------5---5------5----------------5----5--------|
D|-------5--------------5----------5----------------5-----5--------|
A|----5h7------------5h7--------5h7--------------5h7---------------|
E|-----------------------------------------------------------------|
[ Tab from: http://www.guitaretab.com/i/incubus/26047.html ]
e|----------8--------------5--3--------8----------------5-----------|
B|---------x8h10p8-------8---4-------x---8h10p8--------x---7-------|
G|--------5--------------5----5------5----------------5----5--------|
D|-------5--------------5-----5-----5----------------5--------------|
A|----5h7------------5h7---------5h7--------------5h7---------------|
E|------------------------------------------------------------------|

Solo: (Once again...just read the lines, it's all there. But, as a warning, starting at 
portion with the pull-offs (and then-on) it's pretty speedy, so it might require some 
and/or loads of practice.)

E||-------------12-14-12/15------14-14-12-12--10-10h12-----------------------10---|
B||--8-(x14)-------------------------------------------10----8-8-7-7---8-7-8------|
G||-------------------------------------------------------------------------------|
D||-------------------------------------------------------------------------------|
A||-------------------------------------------------------------------------------|
E||-------------------------------------------------------------------------------|

E||----10-10-10-8-8-8-7-7-7--------------------------------|
B||-------------------------10-10-10-8-8-8--10-8-10----8---|
G||--------------------------------------------------------|
D||--------------------------------------------------------|
A||--------------------------------------------------------|
E||--------------------------------------------------------|

E||--10p8------10p8-10p8------10p8-10p8---------| (2x)
B||-------10p8-----------10p8-----------10p8----|
G||---------------------------------------------|
D||---------------------------------------------|
A||---------------------------------------------|
E||---------------------------------------------|

E||--12p8------10p8-10p8------12p8-12p8-------10p8----8-12p8-12p8------------------|
B||-------10p8-----------10p8-----------10p8-------10-------------10-8-10-8-10-----|
G||--------------------------------------------------------------------------------|
D||--------------------------------------------------------------------------------|
A||--------------------------------------------------------------------------------|
E||--------------------------------------------------------------------------------|

E||--10p8----------------10p8--------------------------------|
B||-------9p8-----------------10p8---------------------------|
G||-----------9-9-8-----------------8-8----------------------|
D||-------------------------------------10-------------------|
A||----------------------------------------------------------|
E||----------------------------------------------------------|

E||------11-10-9-8------------------------------------------------|
B||----------------11-10-9-8--------------------------------------|
G||--------------------------11-10-9-8----------------------------|
D||------------------------------------12-11-10-9---6/18----------|
A||---------------------------------------------------------------|
E||---------------------------------------------------------------|

Bridge/Post-Solo: (This seems to be the most argued part of this song, because it is 
hard to hear. But here's the jist of it, and I think it's correct. Like I said...I'm very 
about this tab, so I'm sticking to it.)

E||-------------------------------------------------|
B||-------------------------------------------------|
G||---------------0----0-0-0-0-0-0------------------|
D||---------------1----x-x-x-x-x-x---7--------------|
A||---0-0-0-3-3-3-3----9-9-9-7-7-7---7--------------|
E||---------------3------------------5--------------|

E||---------------------------------------------------------------|
B||---------------------------------------------------------------|
G||----------------0----0-0-0-0-0-0----2-2-2-2-2-4-2-2-2-2-2------|
D||----------------x----x-x-x-x-x-x----4-4-4-4-4-4-4-4-4-4-4------|
A||----------------3----9-9-9-7-7-7----2-2-2-2-2-2-2-2-2-2-2------|
E||---2-2-2-5-5--5-5----------------------------------------------|

Well, there you have it. I have rock solid confidence in this, so I'm not going to be 
willing to change too much or argue about it.  BUT, if you're DEAD positive something's 
let me know, and I'll check it out. Well, enjoy the tab, I'm out.

~DirkLance

| /  slide up
| h  hammer-on
| p  pull-off
|( ) harmonic
| x  Mute note
===============================================================================
Related for Priceless tab