Song name
# A B C D E F G H I J K L M N O P Q R S T U V W X Y Z

Indexi - Bacila Je Sve Niz Rijeku tab

Help us improve GuitareTab! Take a short survey!
    Em                  Am            D                  Gsus4       H7
e |--------------------|-------------|------------------|-------------|
B |--------------------|-------------|------------------|-------------|
G |--------------------|-------------|------------------|-------------|
D |-----------9--------|---7-9-10-10-|------------------|-10-9^8^9----|
A |----7-9-10---10-9-7-|-7-----------|----7-9-10-9-7----|-------------|
E |--7-----------------|-------------|-10------------10-|-------------|

    Em                   Am                  Em       H7
e |--------------------|-------------------|---------|----------|
B |--------------------|---------------7-8-|-8-----8-|-8--7-----|
G |--------------------|-------------9-----|---------|-------9--|
D |-----------9--------|---7-9-10-10-------|---9-9---|----------|
A |----7-9-10---10-9-7-|-7-----------------|---------|----------|
E |--------------------|-------------------|---------|----------|

Em7   (Em7/9)      Em7  Fmaj7
Stajala je usred baste ko najljepsi cvet,
Em7  (Em7/9)    Em7    Fmaj7       C-H
kao da je dio maste i muzike te.

Am                H7    (Am)
slusala je pjesmu moju,
                (bas:ED#DC#)
Em           Emmaj7   Em7 Em6
poslednju sto pjevam njoj
Cmaj7                H7
sad joj kazem zbogom draga,
          Em7
a bila je zivot moj.

prosla je kroz moje snove i bila je tren,
cijelim tijelom bila moja, ja bio sam njen.
nosila je nasu ljubav,
nasu srecu, prvi cvijet,
bacila je sve niz rijeku
i posla u drugi svijet.

Em                   Am
al nocas, ako slusa, nek cuje bol,
D                  Gsus4        H7
u pjesmi koju pjevam njoj, samo njoj,
Em                Am
zauvijek nek nosi na srcu znak,
         Em        H7 Em
zivot je jedan ona bacila..
Related for Bacila Je Sve Niz Rijeku tab