Song name
# A B C D E F G H I J K L M N O P Q R S T U V W X Y Z

Infectious Grooves - Violent And Funky tab

Help us improve GuitareTab! Take a short survey!
intro
e-----------------16-16-16-16-16-14---|
b-10-10-12-12-----16-16-16-16-16-14---|
g-10-10-12-12-----16-16-16-16-16-14---|
d-------------------------------------|
a-------------------------------------|
e-------------------------------------|

e----------------------------|
b----------------------------|repeat when needed
g----------------------------|
d---4s77-4s77--7s3s2p0-------|
a----------------------------|
e----------------------------|

the rest is mostly bass
Related for Violent And Funky tab