Song name
# A B C D E F G H I J K L M N O P Q R S T U V W X Y Z

Inhale Exhale - Dance All Night tab

Intro
E|---------------------------|
B|---------------------------|
G|-4-4-4-4-6-6-6-6-7-7-7-7-7-|
D|-5-5-5-5-7-7-7-7-9-9-9-9-9-|
A|---------------------------|
D|---------------------------|

Pre verse
  G5        D5     A5        F#5
E|------------------------------|
B|-7-7-7-8-8-7-10-7-7-7-8-7-5-7-|
G|------------------------------|
D|------------------------------|
A|------------------------------|
D|------------------------------|

Verse
   G5//A5//B5/A5 X2
E|--------------------|
B|-3---5---7----7-5---|
G|--4---6---7---7-6---|
D|---5---7---7--------|
A|--------------------|
D|--------------------|
pM--------------------|

Chorus
  G5              A5             F#5
E|---------------------------------------|
B|---------------------------------------|
G|-11-11-11-12-11-14-11-11-11-12-11-9-11-|
D|-X--X--X--X--X--X--X--X--X--X--X--X--X-|
A|-9--9--10-10-9--12-9--9--9--10-9--7--9-|
D|---------------------------------------|

Solo
E|--------------------------------|
B|--------------------------------|
G|-11B-9-------11-11-11-9----9----|
D|-------9-12-------------12---12-|
A|--------------------------------|
D|--------------------------------|
Tap to rate this tab
# A B C D E F G H I J K L M N O P Q R S T U V W X Y Z