Song name
# A B C D E F G H I J K L M N O P Q R S T U V W X Y Z

Inme - Neptune tab

....Inme - Neptune....

Tabbed by: broken whisper

Tuning: Drop D

Intro

|-----------------------------------   |------------|
|-----------------------------------   |------------|
|-----------------------------------   |------------|
|----10/9--9---7-7-9-7--------------   |---5---7b---|
|--7-----7---7---------7------------   |--3---5-----|
|-7---------------------------------   |-3---5------|

|-----------------------------------   |------------|
|-----------------------------------   |------------|
|-----------------------------------   |------------|
|----10/9--9---7-7-9-7--------------   |---5---7b---|
|--7-----7---7---------7------------   |--3---5-----|
|-7---------------------------------   |-3---5------|

|-----------------------------------   |------------|
|-----------------------------------   |------------|
|-----------------------------------   |------------|
|----10/9--9---7-7-9-7--------------   |---5---7b---|
|--7-----7---7---------7------------   |--3---5-----|
|-7---------------------------------   |-3---5------|

|-----------------------------------   |------------|
|-----------------------------------   |------------|
|-----------------------------------   |------------|
|----10/9--9---7-7-9-7--------------   |---5---7b---|
|--7-----7---7---------7------------   |--3---5-----|
|-7---------------------------------   |-3---5------|


Distortion

|-----------------------------------   |------------|
|-----------------------------------   |------------|
|-----------------------------------   |------------|
|----10/9--9---7-7-9-7--------------   |---5---7b---|
|--7-----7---7---------7------------   |--3---5-----|
|-7---------------------------------   |-3---5------|

|-----------------------------------   |------------|
|-----------------------------------   |------------|
|-----------------------------------   |------------|
|----10/9--9---7-7-9-7--------------   |---5---7b---|
|--7-----7---7---------7------------   |--3---5-----|
|-7---------------------------------   |-3---5------|

|-----------------------------------   |------------|
|-----------------------------------   |------------|
|-----------------------------------   |----5---7b--|
|----10/9--9---7-7-9-7--------------   |------------|
|--7-----7---7---------7------------   |--3---5-----|
|-7---------------------------------   |-3---5------|

|-----------------------------------   |------------|
|-----------------------------------   |------------|
|-----------------------------------   |------------|
|----10/9--9---7-7-9-7--------------   |---5---7b-7-|
|--7-----7---7---------7------------   |--3---5---7-|
|-7---------------------------------   |-3---5----7-|

Verse

feedback


Chorus
|-----------------------------------|
|-----------------------------------|
|-----------------------------------|
|--55-77-7////////------------------|
|--55-77-7////////------------------|
|--55-77-7////////------------------|
                       **  **
|-----------------------------------|You should be able to figure out the
|-----------------------------------|struming paterns for the 12 11 8
|-----------------------------------|
|--12-11-8-----12-11-8-007-007------|
|--12-11-8-----12-11-8-007-007------|
|--12-11-8-----12-11-8-007-007------|x2

|-----------------------------------   |------------|
|-----------------------------------   |------------|
|-----------------------------------   |------------|
|----10/9--9---7-7-9-7--------------   |---5---7b---|
|--7-----7---7---------7------------   |--3---5-----|
|-7---------------------------------   |-3---5------|

|-----------------------------------   |------------|
|-----------------------------------   |------------|
|-----------------------------------   |------------|
|----10/9--9---7-7-9-7--------------   |---5---7b---|
|--7-----7---7---------7------------   |--3---5-----|
|-7---------------------------------   |-3---5------|

|-----------------------------------   |------------|
|-----------------------------------   |------------|
|-----------------------------------   |----5---7b--|
|----10/9--9---7-7-9-7--------------   |------------|
|--7-----7---7---------7------------   |--3---5-----|
|-7---------------------------------   |-3---5------|

|-----------------------------------   |------------|
|-----------------------------------   |------------|
|-----------------------------------   |------------|
|----10/9--9---7-7-9-7--------------   |---5---7b-7-|
|--7-----7---7---------7------------   |--3---5---7-|
|-7---------------------------------   |-3---5----7-|

Verse

Feedback


Chorus
|-----------------------------------|
|-----------------------------------|
|-----------------------------------|
|--55-77-7////////------------------|
|--55-77-7////////------------------|
|--55-77-7////////------------------|
                       **  **
|-----------------------------------|You should be able to figure out the
|-----------------------------------|struming paterns for the 12 11 8
|-----------------------------------|
|--12-11-8-----12-11-8-007-007------|
|--12-11-8-----12-11-8-007-007------|
|--12-11-8-----12-11-8-007-007------|x2

Brigey thingy

|-----------------------------------|
|-----------------------------------|
|---------12-12-12-12-12/11-11-11---|
|--9999-----------------------------|
|--9999-----------------------------|
|--9999-----------------------------|
       *   *   **
|-----------------------------------|
|-----------------------------------|
|-----------------------------------|
|--4/5-5-5-5-7-55-7-----------------|
|--4/5-5-5-5-7-55-7-----------------|
|--4/5-5-5-5-7-55-7-----------------|x4


|-----------------------------------   |------------|
|-----------------------------------   |------------|
|-----------------------------------   |------------|
|----10/9--9---7-7-9-7--------------   |---5---7b---|
|--7-----7---7---------7------------   |--3---5-----|
|-7---------------------------------   |-3---5------|

|-----------------------------------   |------------|
|-----------------------------------   |------------|
|-----------------------------------   |------------|
|----10/9--9---7-7-9-7--------------   |---5---7b---|
|--7-----7---7---------7------------   |--3---5-----|
|-7---------------------------------   |-3---5------|

|-----------------------------------   |------------|
|-----------------------------------   |------------|
|-----------------------------------   |----5---7b--|
|----10/9--9---7-7-9-7--------------   |------------|
|--7-----7---7---------7------------   |--3---5-----|
|-7---------------------------------   |-3---5------|

|-----------------------------------   |------------|
|-----------------------------------   |------------|
|-----------------------------------   |------------|
|----10/9--9---7-7-9-7--------------   |------------|
|--7-----7---7---------7------------   |------------|
|-7---------------------------------   |-//////////-|Pick Scrape down

Chorus


                       **  **
|-----------------------------------|You should be able to figure out the
|-----------------------------------|struming paterns for the 12 11 8
|-----------------------------------|
|--12-11-8-----12-11-8-007-007------|
|--12-11-8-----12-11-8-007-007------|
|--12-11-8-----12-11-8-007-007------|x2


Outro

|-----------------------------------|
|-----------------------------------|
|---------12-12-12-12-12/11-11-11---|
|--9999-----------------------------|
|--9999-----------------------------|
|--9999-----------------------------|
       *   *   **
|-----------------------------------|
|-----------------------------------|
|-----------------------------------|
|--4/5-5-5-5-7-55-7-----------------|
|--4/5-5-5-5-7-55-7-----------------|
|--4/5-5-5-5-7-55-7-----------------|x3

|-----------------------------------|
|-----------------------------------|
|---------12-12-12-12-12/11-11-11---|
|--9999-----------------------------|
|--9999-----------------------------|
|--9999-----------------------------|


          *
|-----------------------------------|
|-----------------------------------|
|-----------------------------------|
|---55-77-77-9----------------------|
|---55-77-77-9----------------------|
|---55-77-77-9----------------------|


....End....
Tap to rate this tab
# A B C D E F G H I J K L M N O P Q R S T U V W X Y Z