Guitaretab - guitar tabs
Song name
# A B C D E F G H I J K L M N O P Q R S T U V W X Y Z

Inquisition - Crush The Jewish Prophet tab

Transcribed By: nyanchuk
Email:          uklearpower@hotmail.com

**most crushing 4 chord song ever


Tunning D A D G B E

 Riff A:                                                             x1
|-------------------------------------------------------------------|
|-------------------------------------------------------------------|
|-------------------------------------------------------------------|
|-0011001100114433001100110011443300110011001144330011001100114433--|
|-0011001100114433001100110011443300110011001144330011001100114433--|
|-0011001100114433001100110011443300110011001144330011001100114433--|

play Riff A x2
[ Tab from: http://www.guitaretab.com/i/inquisition/57364.html ]
 Riff B:                                                             x2
|-------------------------------------------------------------------|
|-------------------------------------------------------------------|
|-------------------------------------------------------------------|
|-0011001100110011001100110011001100110011001100110011001100110011--|
|-0011001100110011001100110011001100110011001100110011001100110011--|
|-0011001100110011001100110011001100110011001100110011001100110011--|

play Riff A x2
play Riff B x2

Riff C:                                                              x2
|-------------------------------------------------------------------|
|-------------------------------------------------------------------|
|-------------------------------------------------------------------|
|-0---------------0---------------0---------------0-----------------|
|-0---------------0---------------0---------------0-----------------|
|-0---------------0---------------0---------------0-----------------|

play Riff A x2
play Riff B x2

 end with:
|-------------------------------------------------------------------|
|-------------------------------------------------------------------|
|-------------------------------------------------------------------|
|-0-----------------------------------------------------------------|
|-0-(let ring)------------------------------------------------------|
|-0-----------------------------------------------------------------|
Related for Crush The Jewish Prophet tab
Advertisement will be closed in 10 seconds