Song name
# A B C D E F G H I J K L M N O P Q R S T U V W X Y Z

Inspector - Amargo Adios tab

song: Amargo adios
band: inspector


I think the only part of this song who includes guitar is the intro
and this is how I play it.

|-----------------------------------|
|-----------------------------------|
|-----------------------------------|
|---7-5----------------7-5----------|
|-5-----8-5----------5-----5-7------|
|-----------------------------------|

|--------------------------------------------|
|-----------------------------------3--------|
|---------------------------------2----------|
|------------------------------3-------------|
|-8-7-5--3-5--3-5-7-8-7--5-3-5---------------|
|--------------------------------------------|

tabeed by: AbHaMMeR eSqUiVeL

Tap to rate this tab
# A B C D E F G H I J K L M N O P Q R S T U V W X Y Z