Song name
# A B C D E F G H I J K L M N O P Q R S T U V W X Y Z

Inspiral Carpets - Memories Of You tab

-------------------------------------------------------------------------------
			     Memories Of You - Inspiral Carpets
-------------------------------------------------------------------------------
Tabbed by: Brent
Email: brent13@hotmail.co.uk

Tuning: Standard

e|---------------------------------------------------------------------------|
B|-------1-------1--------0-----1--------------------------------------------|
G|-----2-------0--------0---------2------------------------------------------|
D|---2-------2--------2-------2----------------------------------------------|
A|-0-------3--------2-------0------------------------------------------------|
E|---------------------------------------------------------------------------|
Tap to rate this tab
# A B C D E F G H I J K L M N O P Q R S T U V W X Y Z