Song name
# A B C D E F G H I J K L M N O P Q R S T U V W X Y Z

Interpol - Heinrich Maneuver tab

Help us improve GuitareTab! Take a short survey!
Tabbed by: Silentcrisis/Keneticshark
Artist: Interpol
Album: Our Love To Admire
Tuning: Standard

Notes: Had to trim the tab to make it fit, apologies if it looks a little
crammed. Obviously, listen to the recording for timings - should be able
to figure it out. If you have any questions, hotmail me: keneticshark


Intro

|----------------------|-----------------------|----------------------------|
|----------------------|-----------------------|----------------------------|
|----------------------|-----------------------|----------------------------|
|----------------------|-----------------------|----------------------------|
|----2-2-2-------------|------2-2-2------------|-------2-2-2-------2-2-2-2-2|
|3-3-------3-3-3-5-5-5-|3-3-3-------3-3-3-5-5-5|-0-0-0-------0-0-0----------|

|----------------------|-----------------------|----------------------------|
|----------------------|-----------------------|----------------------------|
|----------------------|-----------------------|----------------------------|
|----------------------|-----------------------|----------------------------|
|----------5-5-5-------|----7-7-7--9/-2-2-2----|---------------2-2-2--------|
|3-3-3-3-3-------5-5-5-|5-5-----------------3-3|-3-5-5-5-3-3-3-------3-3-3--|

|----------------------|-----------------------|----------------------------|
|----------------------|-----------------------|----------------------------|
|----------------------|-----------------------|----------------------------|
|----------------------|-----------------------|----------------------------|
|-------------2-2-2----|--2-2-2-------2-2-2----|---------------2-2-2--------|
|5-5-5--0-0-0-------0-0|0-------3-3-3-------3-3|-3-5-5-5-3-3-3-------3-3-3--|

e|-----------------------|------------|
B|-----------------------|------------|
G|-----------------------|------------|
D|-----------------------|------------|
A|-------------2-2-2-----|--2-2-2-2-2-|
E|-5-5-5-0-0-0-------0-0-|0-----------|

e|-----------------------|-----------------------|-------------------|
B|-----------------------|-----------------------|-------------------|
G|-----------------------|-----------------------|-------------------|
D|-----------------------|-----------------------|-------------------|
A|-----------5-5-5-------|----7-7-8-9-9-9-9-9----|---7-7-7-7-7-------|
E|-3-3-3-3-3-------5-5-5-|5-5-----------------7-7|-7-----------7-7-7\|

e|-----------------------|-----------------------|-------------------|
B|-----------------------|-----------------------|-------------------|
G|-----------------------|-----------------------|-------------------|
D|-----------------------|-----------------------|-------------------|
A|-----------5-5-5-------|----7-7-8-9-9-9-9-9----|---7-7-7-7-7-------|
E|-3-3-3-3-3-------5-5-5-|5-5-----------------7-7|-7-----------7-7-8-|

e|----------------------|----------------------|---------------------|
B|----------------------|----------------------|---------------------|
G|----------------------|----------------------|---------------------|
D|----------------------|----------------------|---------------------|
A|----------------------|----------------------|---------------------|
E|-8-8-8-8-8-8-7-5-5-5-5|5-5-5-3-0~-0-0-0-0-0-0|-2-3~-3-3-3-3-3-3-7-8|

e|----------------------|----------------------|---------------------|
B|----------------------|----------------------|---------------------|
G|----------------------|----------------------|---------------------|
D|----------------------|----------------------|---------------------|
A|----------------------|----------------------|---------------------|
E|-8-8-8-8-8-8-7-5~5-5-5|5-5-5-3-0~-0-0-0-0-0-0|-2-3~-3-3-3-3-3-3-7-8|

e|----------------------|----------------------|---------------------|
B|----------------------|----------------------|---------------------|
G|----------------------|----------------------|---------------------|
D|----------------------|----------------------|---------------------|
A|----------------------|----------------------|---------------------|
E|-8-8-8-8-8-8-7-5-5-5-5|5-5-5-3-0~-0-0-0-0-0-0|-2-3~-3-3-3-3-3-3-7-8|

e|----------------------|------------|
B|----------------------|------------|
G|----------------------|------------|
D|----------------------|------------|
A|----------------------|------------|
E|-8-8-8-8-8-8-7-5-5-5-5|5-5-5-3-3-3-|

e|---------------------|----------------|
B|---------------------|----------------|
G|---------------------|----------------|
D|---------------------|----------------|
A|-----2-2-------------|2-2-------------|
E|-0-0-----3-3-5-5-0-0-|----3-3-5-5-0-0-|

Breakdown

e|---------------------|-----------------------|----------------------------|
B|---------------------|-----------------------|----------------------------|
G|---------------------|-----------------------|----------------------------|
D|---------------------|-----------------------|----------------------------|
A|---------------------|-----------------------|----------------------------|
E|------------5-5-5-5-5|------------x-5-5-5-5-5|-----------------7-7-7-7-7-7|

|----------------------|-----------------------|----------------------------|
|----------------------|-----------------------|----------------------------|
|----------------------|-----------------------|----------------------------|
|----------------------|-----------------------|----------------------------|
|-----10-10-10-10-10-10|------------9-9-9-9-9-9|-----------9-9-9-9-7-7-7-7--|
|----------------------|-----------------------|----------------------------|

e|-----------------------|-----------------------|-------------------|
B|-----------------------|-----------------------|-------------------|
G|-----------------------|-----------------------|-------------------|
D|-----------------------|-----------------------|-------------------|
A|-----------5-5-5-------|----7-7-8-9-9-9-9-9----|---7-7-7-7-7-------|
E|-3-3-3-3-3-------5-5-5-|5-5-----------------7-7|-7-----------7-7-7\|

e|-----------------------|-----------------------|-------------------|
B|-----------------------|-----------------------|-------------------|
G|-----------------------|-----------------------|-------------------|
D|-----------------------|-----------------------|-------------------|
A|-----------5-5-5-------|----7-7-8-9-9-9-9-9----|---7-7-7-7-7-------|
E|-3-3-3-3-3-------5-5-5-|5-5-----------------7-7|-7-----------7-7-8-|

e|----------------------|----------------------|---------------------|
B|----------------------|----------------------|---------------------|
G|----------------------|----------------------|---------------------|
D|----------------------|----------------------|---------------------|
A|----------------------|----------------------|---------------------|
E|-8-8-8-8-8-8-7-5-5-5-5|5-5-5-3-0~-0-0-0-0-0-0|-2-3~-3-3-3-3-3-3-7-8|

e|----------------------|----------------------|---------------------|
B|----------------------|----------------------|---------------------|
G|----------------------|----------------------|---------------------|
D|----------------------|----------------------|---------------------|
A|----------------------|----------------------|---------------------|
E|-8-8-8-8-8-8-7-5-5-5-5|5-5-5-3-0~-0-0-0-0-0-0|-2-3~-3-3-3-3-3-3-7-8|

e|----------------------|----------------------|---------------------|
B|----------------------|----------------------|---------------------|
G|----------------------|----------------------|---------------------|
D|----------------------|----------------------|---------------------|
A|----------------------|----------------------|---------------------|
E|-8-8-8-8-8-8-7-5-5-5-5|5-5-5-3-0~-0-0-0-0-0-0|-2-3~-3-3-3-3-3-3-7-8|

e|----------------------|--------------------|
B|----------------------|--------------------|
G|----------------------|--------------------|
D|----------------------|--------------------|
A|----------------------|--------------------|
E|-8-8-8-8-8-8-7-5-5-5-5|5-5-5-3-0~-0-0-0-0-0|

Silent 'bridge' (2:22~2:27)

e|----------------------|----------------------|---------------------|
B|----------------------|----------------------|---------------------|
G|----------------------|----------------------|---------------------|
D|----------------------|----------------------|---------------------|
A|----------------------|----------------------|---------------------|
E|-8~8-8-8-8-8-7-5-5-5-5|5-5-5-3-0~-0-0-0-0-0-0|-2-3~-3-3-3-3-3-3-7-8|

e|----------------------|----------------------|---------------------|
B|----------------------|----------------------|---------------------|
G|----------------------|----------------------|---------------------|
D|----------------------|----------------------|---------------------|
A|----------------------|----------------------|---------------------|
E|-8-8-8-8-8-8-7-5-5-5-5|5-5-5-3-0~-0-0-0-0-0-0|-2-3~-3-3-3-3-3-3-7-8|

e|----------------------|----------------------|------|
B|----------------------|----------------------|------|
G|----------------------|----------------------|------|
D|----------------------|----------------------|------|
A|----------------------|----------------------|-7-7-7|
E|-8-8-8-8-8-8-7-5-5-5-5|5-5-5-3-0~-0-0-0-0-0-5|------|

Outro (2:45~)

e|-----------------------|-----------------------|--------------------|
B|-----------------------|-----------------------|--------------------|
G|-16~--16-16-16---17~---|-17-17-17-14~--14-14-14|-16~--16-16-16---17~|
D|-----------------------|-----------------------|--------------------|
A|-14~--14-14-14---15~---|-15-15-15-12~--12-12-12|-14~--14-14-14---15~|
E|-----------------------|-----------------------|--------------------|

e|-----------------------|----------------------------|----------|
B|-----------------------|----------------------------|----------|
G|-17-17-17-14~--14-14-14|-9~-9-9-9--16~-16-16-16--17~|-17-17-17-|
D|-----------------------|----------------------------|----------|
A|-15-15-15-12~--12-12-12|-7~-7-7-7--14~-14-14-14--15~|-15-15-15-|
E|-----------------------|----------------------------|----------|

e|-----------------------|------------------------------------|
B|-----------------------|------------------------------------|
G|-14~-14-14-14--9~-9-9-9|-16~-16-16-16--17~-17\16/17\16/17\16|
D|-----------------------|------------------------------------|
A|-12~-12-12-12--7~-7-7-7|-14~-14-14-14--15~-15\14/15\14/15\14|
E|-----------------------|------------------------------------| x4

Glaring errors will be corrected and guitar 2 will be added shortly. 

Boy, this was a tedious one - not hard to figure out, but to tab. :|

Comments and ratings are always welcome. Enjoy.
Related for Heinrich Maneuver tab