Song name
# A B C D E F G H I J K L M N O P Q R S T U V W X Y Z

Inxs - Devil Inside tab

Song: Devil Inside solo by INXS
Tabbed By: Ryan Olesin (raolesin @ hotmail . com)

Guitar solo

P = Pull Off
H = Hammer On
~ = Vibrato
B = Half Bend
F = Full Bend
^ = Bend
\ = Slide Down
/ = Slide Up

Guitar solo

|-------------------------------|----------------------------------------|--------------------|
|-8-/20-20p17-20p17-20-20p17-17-|-10---9-8-------------------------------|--------------------|
|-7-/19-------------19----------|----------9-8-7-----------------------5-|-7b7b-5-7-5-7b5-7-5-|
|-------------------------------|----------------9-8-7\5-7-5-------5-7---|--------------------|
|-------------------------------|----------------------------5-6-7-------|--------------------|
|-------------------------------|----------------------------------------|--------------------|

                                                 x4
|------------------------------|-15p12-15-15-|-17p15---|-15-|
|-12-10-12------10-12-12p10-12-|-------------|------17-|----|
|----------9-12----------------|-------------|---------|----|
|------------------------------|-------------|---------|----|
|------------------------------|-------------|---------|----|
|------------------------------|-------------|---------|----|

|20p17----17----17---------------------|
|------20----20----20-20-20p19p17------|
|---------------------------------19-17|
|--------------------------------------|
|--------------------------------------|
|--------------------------------------|
Tap to rate this tab
# A B C D E F G H I J K L M N O P Q R S T U V W X Y Z