Song name
# A B C D E F G H I J K L M N O P Q R S T U V W X Y Z

Iron Butterfly - New Day tab

I will put the rest of song when i have time. its easy to figure out.

Iron Butterfly - New Day
Standard Tuning EADGBE
Song is in key of G

     Riff 1 x8      Transition to Riff 2 x1     Riff 2 x1
E|------------------|-----------------------|----------------------|
B|------------------|-----------------------|----------------------|
G|------------------|-----------5---3-------|-----3-5---5---3------|
D|-----3-5---5---3--|-----3-5-----5---5-----|-3-5---------5---5----|
A|-3-5---------5---5|-3-5-----3-------------|---------3------------|
E|---------3--------|-----------------------|----------------------|

Transition back to riff 1 x1
|-------------------------|
|-------------------------|
|-----3-5-----------------|  Then Riff 1 x 1 1/2.
|-3-5-------5---3---------|  You'll know what i mean by the "1/2"
|-------------5---5-------|     when you listen to the song
|---------3---------------|


I will tab the rest soon with most of the fills and all that good stuff.
Tap to rate this tab
# A B C D E F G H I J K L M N O P Q R S T U V W X Y Z