Guitaretab - guitar tabs
Song name
# A B C D E F G H I J K L M N O P Q R S T U V W X Y Z

Iron Maiden - Different World tab

----------------------------------------------------------------------------
			    Different World - Iron Maiden, Solo
----------------------------------------------------------------------------
	This is a great song by Iron Maiden
and it will have the Harmonized part before the solo too, because most tabbs dont have it right.
Transcribed by Simon Chowaniec, any questions send them to simcho1@sbcglobal.net
-Rate Please-
---------------------------------------------------------------------------- 
Tuning: EADGBE 


Harmonized part- Guitar I


e[------------|------------]  
b[-13-12------|--13-12-----]
g[-------12---|--------11--]
d[------------|------------]
a[------------|------------]
e[------------|------------]
  <----4x---->
<------------3x------------->


Harmonized part- Guitar II


e[-------------|-----------]
b[-------------|-----------]
g[-12-11-9-----|--12-11----]
d[-------------|--------12-]
a[-------------|-----------]
e[-------------|-----------]
  <----4x---->
<-------------3x------------> 


Solo 
                          AH (Artifial Harmonic)  
e[-14hb(15)------------------12-----------------------------------------|
b[----------13~~~~--12-13-15----15-13h15p13-12-13-12--------------------|
g[---------------------------------------------------14-11-12-14--------|
d[---------------------------------------------------------------12~~---|
a[----------------------------------------------------------------------|
e[----------------------------------------------------------------------|
[ Tab from: http://www.guitaretab.com/i/iron-maiden/77590.html ]
                                                                      TB (Tremelo Bar)
e[----------12-14-15-14-12----------------------------------------------------------|
b[-15fb(17)----------------------12-10h12p10h12p10-----10----10-12-12p10------------|
g[-------------------------12-11--------------------12----12------------------------|
d[----------------------------------------------------------------------------------|
a[----------------------------------------------------------------------------------|
e[----------------------------------------------------------------------------------|


e[-12p10p0----------------|-----------------|--------------------------------------------|
b[---------12p10p0--------|--12h13p12p0-----|--------------------------------------------|
g[-----------------12p11--|-----------------|-12---11-9----------------------------------|
d[------------------------|-----------------|-----------12-10-9--------------------------|
a[------------------------|-----------------|-------------------12-10--------------------|
e[------------------------|-----------------|-------------------------10-----------------|
<----------2x------------>  <-----3x----->

e[-----------------------------------------------------17-19-20-20fb(22)r(20)fb(22)------]
b[--------------------------------------------17-19-20-----------------------------------]
g[---------------------7-9-9fb(11)r(9)-7-------------------------------------------------]
d[-------------7-9-10--------------------------------------------------------------------]
a[------7-9-10---------------------------------------------------------------------------]
e[-8-10----------------------------------------------------------------------------------]
p.m. . . . . . . . . .








Great Band, Great Song, Great tab. I hope you enjoy this song.
any questions, send them to simcho1@sbcglobal.net
----------------------------------------------------------------------------
- () means, at what note you should be at.
- r  release bend
- hb half bend
- fb full bend
| /  slide up
| \  slide down
| h  hammer-on
| p  pull-off
| ~  vibrato
| +  harmonic
| x  Mute note
===============================================================================
Related for Different World tab
Advertisement will be closed in 10 seconds