Song name
# A B C D E F G H I J K L M N O P Q R S T U V W X Y Z

Iron Maiden - Weekend Warrior tab

I'm quite happy about this, to be honest. I'm not sure about the chorus but the rest 
right. the intro bits are clean the rest are distorted.

intro                  x4  verse                          x6
||-------------------------||------------|------------------||
||-------------------------||-------3-3--|------------------||
||o-----0-------0-------2-o||o-2----2-2--|-------5-5-------o||
||o---2-------0-------0---o||o-2----0-0--|-5-5---5-5-------o||
||-0-----------------------||--0---------|-5-5---3-3--------||
||---------2-------3-------||-------2-2--|-3-3--------------||
then intro again x4 verse x6 intro x4
chorus:                                                       pm-------------|
||----------0-|-------------------------|---------0-|------------------------|
||--6--3----0-|-6--3--------------------|-6--3----0-|-6--3-------------------|
||o-5--2--2-2-|-5--2--5--5------5-5-----|-5--2--2-2-|-5--2---------------o---|
||o-3--0--2-2-|-3--0--5--5------5-5-----|-3--0--2-2-|-3--0--2--2-2-2-2-2-o---|
||--------0-0-|-------3--3-2-0--3-3-2-0-|-------0-0-|-------0--0-0-0-0-0-----|
||------------|-------------------------|-----------|------------------------|
don't play the palm muted notes the second time
then verse x6 intro x4 chorus x2
I'm not going to try the solo i'm afraid - try another tab
rhythm for solo(play 4 times)
                         |1,3-----------------| |2,4----------------------|
|-----------------------|-----------------------|-------------------------|
|-----------------------|-----------------------|-------------------------|
|-----------------------|-----------------------|-------------------------|
|-7-7-7-7--5-5-5-5--5-4-|-2-2-2-2--2-2-2-2--2-5-|---------------------5---|
|-5-5-5-5--3-3-3-3--3-2-|-0-0-0-0--0-0-0-0--0-3-|-5-5-5-5--5-5-5-5--5-3---|
|-----------------------|-----------------------|-3-3-3-3--3-3-3-3--3-----|
interlude(probably played on two guitars as well as the clean one)
||--12-12-14-15--12-14-15--12-14-15--12-14-12--15-15-14-12--------|
||--8--8--10-12--8--10-12---8-10-12---8-10--8--12-12-10--8--------|
||o---------------------------------------------------------------|
||o---------------------------------------------------------------|
||----------------------------------------------------------------|
||----------------------------------------------------------------|
|clean guitar
||--0--/--/--/---/--/--/---/--/--/---/--/--/---0------------------|
||--1--/--/--/---/--/--/---/--/--/---/--/--/---0------------------|
||o-2--/--/--/---/--/--/---/--/--/---/--/--/---0--same pattern----|
||o-0--/--/--/---/--/--/---/--/--/---/--/--/---2------------------|
||--3--/--/--/---/--/--/---/--/--/---/--/--/---2------------------|
||---------------------------------------------0------------------|

|-12-12-14-15--12-14-15--15-15-17--15-14-15----------------------||
|--8--8-10-12---8-10-12--12-12-14--12-10-12----------------------||
|---------------------------------------------------------------o||
|---------------------------------------------------------------o||
|----------------------------------------------------------------||
|----------------------------------------------------------------||
|clean guitar continues the same
then solo rhythm x 2
then the wee solo bit rhythm goes
||--0-0---2-------------------------|-0-0---2---2-2--0----||
||--2-2---3-------------------------|-2-2---3---3-3--1----||
||o-2-2---2-------------0---------0-|-2-2---2---2-2--0---o||
||o-2-2---0-----------2---------4---|-2-2---0---0-0--2---o||
||--0-0--------0-2-3-------0--------|-0-0------------3----||
||----------------------------------|---------------------||
then verse x4 intro x4 chorus x2
Tap to rate this tab
# A B C D E F G H I J K L M N O P Q R S T U V W X Y Z