Guitaretab - guitar tabs
Song name
# A B C D E F G H I J K L M N O P Q R S T U V W X Y Z

Iron Savior - Brave New World tab

BRAVE NEW WORLD

BY IRON SAVIOR
FROM IRON SAVIOR ALBUM

TABBED BY ANDREAS ÍHRN

NORMAL TUNING (EBGDAE)

INTRO:  X 2
E|------------------------------------------------|-------------------------------------|
B|--------- PLAY THIS PART TWICE -----------------|-------------------------------------|
G|------------------------------------------------|-------------------------------------|
D|---5/7---------7-------------7---------3--------|--3-2p3-2-----------5--2--3-3-2---5-3|
A|---3/5-5-5-5-5-5-5-5-5-5-5-5-5-5-5-5-5---6-5----|--1-------3-1---3-3-3--0--1-----3----|
E|---------------------------------------------6--|--------------3-1-1------------------|
        | P.M...| | P.M.......| | P.M...|

VERSE:  1
E|--------------------------------------------------------------------------------------|
B|--------------------------------------------------------------------------------------|
G|--------------------------------------------------------------------------------------|
D|--------------------------------------------------------------------------------------|
A|---------------------------------------------------5-------------8-7-8----------------|
E|---3-3-3-3-3-3-3-3-3-3-3-3-3-3-3-3-3-3-3-3-3-3-3-3-3-3-3-3-3-3-3-6-5-6-3-3-3-3-3-3-3-3| 
    | P.M.......................................... | | P.M...... |        | P.M.........

E|--------------------------------------------------------------------------------------|
B|--------------------------------------------------------------------------------------|
G|--------------------------------------------------------------------------------------|
D|-------------------8-10---------------------------------------------------------------|
A|-------------------6--8-------------------------------------------------5-------------|
E|---3-3-3-3-3-3-3-3------3-3-3-3-3-3-3-3-3-3-3-3-3-3-3-3-3-3-3-3-3-3-3-3-3-3-3-3-3-3-3-|
    ............... |    | P.M.......................................... | | P.M........|

E|--------------------------------------------------------------------------------------|
B|--------------------------------------------------------------------------------------|
G|--------------------------------------------------------------------------------------|
D|-----------------------------------------8------7-----------------------------8-5-----|
A|---8-7-8---------------------------------6-8-10-5-5-5-5-5-5-5-5-5-5-5-5-5-5-5-6-3-----|
E|---6-5-6-3-3-3-3-3-3-3-3-3-3-3-3-3-3-3-3---6--8---------------------------------------|
          | P.M.......................... |        | P.M...................... |
VERSE:  2
E|--------------------------------------------------------------------------------------|
B|--------------------------------------------------------------------------------------|
G|--------------------------------------------------------------------------------------|
D|--------------------------------------------------------------------------------------|
A|---------------------------------------------------5-------------8-7-8----------------|
E|---3-3-3-3-3-3-3-3-3-3-3-3-3-3-3-3-3-3-3-3-3-3-3-3-3-3-3-3-3-3-3-6-5-6-3-3-3-3-3-3-3-3|
    | P.M.......................................... | | P.M...... |     | P.M............

E|--------------------------------------------------------------------------------------|
B|--------------------------------------------------------------------------------------|
G|--------------------------------------------------------------------------------------|
D|-------------------8-10---------------------------------------------------------------|
A|-------------------6--8-------------------------------------------------5-------------|
E|---3-3-3-3-3-3-3-3------3-3-3-3-3-3-3-3-3-3-3-3-3-3-3-3-3-3-3-3-3-3-3-3-3-3-3-3-3-3-3-|
    ............... |    | P.M.......................................... | | P.M........|

E|---------------------------------------------------|
B|---------------------------------------------------|
G|---------------------------------------------------|
D|-----------------------------------------8---------|
A|---8-7-8---------------------------------6-8-10----|
E|---6-5-6-3-3-3-3-3-3-3-3-3-3-3-3-3-3-3-3---6--8----|
          | P.M.......................... |

BRIDGE: 
GUITAR 1
E|--------------------------------------------------------------------------------------|
B|--------------------------------------------------------------------------------------|
G|--------------------------------------------------------------------------------------|
D|---2-----2---2-----------------------------------------------------------------------7|
A|---0-0-0-0-0-0-0-0-0-0-3-----3---3---------5-----5---5---------2-----2---2---------3-5|
E|-----------------------1-1-1-1-1-1-1-1-1-1-3-3-3-3-3-3-3-3-3-3-0-0-0-0-0-0-0-0-0-0-1--|
      |P.M| | | | P.M...| |P.M| | | | P.M...| |P.M| | | | P.M...| |P.M| | | | P.M...|

GUITAR 2
E|-------------------------------------------------------------b-------b----------------|
B|---10--12--13~-----6--8--10~-----8--10--12~-----5--7--8~-----12(13)~-12(13)-12-10~----|
G|--------------------------------------------------------------------------------------|
D|--------------------------------------------------------------------------------------|
A|--------------------------------------------------------------------------------------|
E|--------------------------------------------------------------------------------------|

CHORUS:  (2 GUITARS)
E|-----------------------------------------------12-12p13-13-13-17-15----14-------------|
B|--------------------------------------------------------------------17----------------|
G|--------------------------------------------------------------------------------------|
D|------------------------------------------------------------------------------7-------|
A|---4-------------4-2-4-----------------------------5----------7--5--2--4--4-2-5-5-5-5-|
E|---2-2-2-2-2-2-2-2-0-2-2-2-2-2-2-2-2-2-2-2-2-2-2-2-3----------5--3--0--2--2-0---------|
      | P.M...... |     | P.M...................... |                            | P.M...
                                                                 b            b 
E|-------------------------------------------------------------9-12(13)-11-10-12(13)----|
B|--------------------------------------------------------------------------------------|
G|--------------------------------------------------------------------------------------|
D|-----7-----7-----7---------7-----7-----4---------4-----4-----6--------------10--------|
A|---5-5-5-5-5-5-5-5-5-5-5-5-5-5-5-5-5-5-2-2-2-2-2-2-2-2-2-2-2-4---------------8--------|
E|--------------------------------------------------------------------------------------|
   ...| |P.M| |P.M| | P.M...| |P.M| |P.M| | P.M...| |P.M| |P.M|

E|-----------------------------------------------12-12p13-13-13-17-15----14-------------|
B|--------------------------------------------------------------------17----------------|
G|--------------------------------------------------------------------------------------|
D|------------------------------------------------------------------------------7-------|
A|---4-------------4-2-4-----------------------------5----------7--5--2--4--4-2-5-5-5-5-|
E|---2-2-2-2-2-2-2-2-0-2-2-2-2-2-2-2-2-2-2-2-2-2-2-2-3----------5--3--0--2--2-0---------|
      | P.M...... |     | P.M...................... |                            | P.M...
                                                                 b            b
E|-------------------------------------------------------------9-12(13)-11-10-12(13)----|
B|--------------------------------------------------------------------------------------|
G|--------------------------------------------------------------------------------------|
D|-----7-----7-----7---------7-----7-----6---------6-----6-----7--------------9---------|
A|---5-5-5-5-5-5-5-5-5-5-5-5-5-5-5-5-5-5-4-4-4-4-4-4-4-4-4-4-4-5--------------7---------|
E|--------------------------------------------------------------------------------------|
   ...| |P.M| |P.M| | P.M...| |P.M| |P.M| | P.M...| |P.M| |P.M|

E|--------------------------|
B|--------------------------|
G|--------------------------|
D|--------------------------|
A|---4-------------4-2-4----|
E|---2-2-2-2-2-2-2-2-0-2----|
      | P.M...... |

RIFF:  X 1
SAME AS INTRORIFF

VERSE:
SAME AS # 2 ABOVE

BRIDGE:
SAME AS ABOVE

CHORUS:
SAME AS ABOVE

SOLO:
E|--------------------------------------------------------------------------------------|
B|--------------------------------------------------------------------------------------|
G|---7-5-7-8-7-8-10-8-10-12~------------------------------------------------------------|
D|---------------------------------------------------------------------------13-13-13-13|
A|---------------------------10-10-10-10-12-12-12-12-13-13-13-13-12-12-12-12------------|
E|--------------------------------------------------------------------------------------|
[ Tab from: http://www.guitaretab.com/i/iron-savior/130025.html ]
E|------------------------------8p10-8--------------11p13~-11-9-------11-9-------11p13--|
B|-------------------------------------11-10-8-6-8~-------------13-11------13-11--------|
G|---10-10-10-10-12-12-12-12-13---------------------------------------------------------|
D|--------------------------------------------------------------------------------------|
A|--------------------------------------------------------------------------------------|
E|--------------------------------------------------------------------------------------|

E|---11-9---------------------------------------------10-10-10-10-12-12-12-12-13-13-13--|
B|--------13-11-9-10-10-10-10-12-12-12-12-13-13-13-13-----------------------------------|
G|--------------------------------------------------------------------------------------|
D|--------------------------------------------------------------------------------------|
A|--------------------------------------------------------------------------------------|
E|--------------------------------------------------------------------------------------|

E|---13-15-17~--------------------------------------------------------------------------|
B|-------------------------------b-------------------------------------------7p8--------|
G|-------------------------------7(9)~-9-7-------------b----------7p10-9-7-------10-9~--|
D|--------------------2-5~-5-7-9-----------10-9-10-7-5-5(7)~-7-10----------10-----------|
A|-------------3~-3-5-------------------------------------------------------------------|
E|--------------------------------------------------------------------------------------|

  ( 2 GUITARS)
E|-------------12-13-12-10-12-10-----------------12-13-12-10-12-10-----------------12-13|
B|-------------------------------13-12-----------------------------13-12----------------|
G|--------------------------------------------------------------------------------------|
D|-----------4---------------------------------3---------------------------------2------|
A|---2-2-2-2-2-------------------------1-1-1-1-1-------------------------0-0-0-0-0------|
E|--------------------------------------------------------------------------------------|
    | P.M...|                         | P.M...|                         | P.M...|

E|---12-10-12-10-------------------------------|
B|---------------13-12-------------------------|
G|---------------------------------------------|
D|---------------------------------------------|
A|-----------------------------5----------4----|
E|---------------------3-3-3-3-3--2-2-2-2-2----|
                      | P.M...|  | P.M...|

E|-------------12-13-12-10-12-10-----------------12-13-12-10-12-10-----------------12-13|
B|-------------------------------13-12-----------------------------13-12----------------|
G|--------------------------------------------------------------------------------------|
D|--------------------------------------------------------------------------------------|
A|---2-2-2-2-2-2-2-2-2-2-2-2-2-2-2-2---1-1-1-1-1-1-1-1-1-1-1-1-1-1-1-1---0-0-0-0-0-0-0-0|
E|--------------------------------------------------------------------------------------|

E|---12-10-12-10-----------------12-13-12-10-12-10--------|
B|---------------13-12-----------------------------13-12--|
G|--------------------------------------------------------|
D|--------------------------------------------------------|
A|--------------------------------------------------------|
E|---0-0-0-0-0-0-0-0---3-3-3-3-3-3-3-3-2-2-2-2-2-2-2-2----|

E|--------------------------------------------------------------------------------------|
B|-----------------b-------------------------------------------------------------------b|
G|----------7----7-7(9)-7-5-----------7----7-10-9-7-9-10-9-7-9-10/12~-----------7----7-7|
D|---7-9-10---10------------5~-7-9-10---10-------------------------------7-9-10---10----|
A|--------------------------------------------------------------------10----------------|
E|--------------------------------------------------------------------------------------|
                                          (    2 GUITARS    )
E|-----------------------------------------/13-12~-------15~----|
B|-------------------------------------------------8/10~--------|
G|---(9)-7-5----10-9-7-9-7-----------------/10--9~-------12~----|
D|-----------5~------------10-9-7-10-9-7-5---------5/7~---------|
A|--------------------------------------------------------------|
E|--------------------------------------------------------------|

BRIDGE:
E|--------------------------------------------------------------------------------------|
B|--------------------------------------------------------------------------------------|
G|--------------------------------------------------------------------------------------|
D|------5--------------5----------------------------------2/4---------------------------|
A|---3--3--5--7--5--3--3--2-2-2-2-2-2-2-2-2-2-2-2-2-2-2-2-0/2-2-2-2-2-2-2-2-2-2-2-2-2-2-|
E|---1-----3--5--3--1-------------------------------------------------------------------|
                         | P.M.......................... |   | P.M.......................

E|--------------------------------------------------------|
B|--------------------------------------------------------|
G|--------------------------------------------------------|
D|---------2/4-----------------------------------4-2-4----|
A|---2-2-2-0/2-2-2-2-2-2-2-2-2-2-2-2-2-2-2-2-2-2-2-0-2----|
E|--------------------------------------------------------|
    ..... |   | P.M............................ |

CHORUS:
E|---------------------------------------------12-12p13-13-13-17-15----14---------------|
B|------------------------------------------------------------------17------------------|
G|--------------------------------------------------------------------------------------|
D|----------------------------------------------------------------------------7---------|
A|---4-------------4-2-4-----------------------------5--------7--5--2--4--4-2-5-5-5-5-5-|
E|---2-2-2-2-2-2-2-2-0-2-2-2-2-2-2-2-2-2-2-2-2-2-2-2-3--------5--3--0--2--2-0-----------|
      | P.M...... |     | P.M...................... |                          | P.M.....
                                                                b            b
E|-----------------------------------------------------------9-12(13)-11-10-12(13)------|
B|--------------------------------------------------------------------------------------|
G|--------------------------------------------------------------------------------------|
D|---7-----7-----7---------7-----7-----4---------4-----4-----6--------------10----------|
A|---5-5-5-5-5-5-5-5-5-5-5-5-5-5-5-5-5-2-2-2-2-2-2-2-2-2-2-2-4---------------8----------|
E|--------------------------------------------------------------------------------------|
      |P.M| |P.M| | P.M...| |P.M| |P.M| | P.M...| |P.M| |P.M|

E|---------------------------------------------12-12p13-13-13-17-15----14---------------|
B|------------------------------------------------------------------17------------------|
G|--------------------------------------------------------------------------------------|
D|----------------------------------------------------------------------------7---------|
A|---4-------------4-2-4-----------------------------5--------7--5--2--4--4-2-5-5-5-5-5-|
E|---2-2-2-2-2-2-2-2-0-2-2-2-2-2-2-2-2-2-2-2-2-2-2-2-3--------5--3--0--2--2-0-----------|
      | P.M...... |     | P.M...................... |                          | P.M....|

E|------------------------------------------------|
B|------------------------------------------------|
G|------------------------------------------------|
D|---7-----7-----7---------7-----7-----6--7--9----|
A|---5-5-5-5-5-5-5-5-5-5-5-5-5-5-5-5-5-4--5--7----|
E|------------------------------------------------|
      |P.M| |P.M| | P.M...| |P.M| |P.M|

E|--------------------------------------------------------------------------------------|
B|--------------------------------------------------------------------------------------|
G|--------------------------------------------------------------------------------------|
D|------------7------------------7---------7-----------------7---------7----------------|
A|---4--2--4--5--7--6--2--4--4-2-5-5-5-5-5-5-5-5-5-5-5-5-5-5-5-5-5-5-5-5-5-5-5-5-5-5-5-5|
E|---2--0--2-----5--4--0--2--2-0--------------------------------------------------------|
                                  | P.M...| | P.M.......... | | P.M...| | P.M...........|

E|------------------------------------|
B|------------------------------------|
G|------------------------------------|
D|---4---------4-------------6--10----|
A|---2-2-2-2-2-2-2-2-2-2-2-2-4---8----|
E|------------------------------------|
      | P.M...| | P.M.......|

E|--------------------------------------------------------------------------------------|
B|--------------------------------------------------------------------------------------|
G|--------------------------------------------------------------------------------------|
D|------------7------------------7---------7-----------------7---------7----------------|
A|---4--2--4--5--7--6--2--4--4-2-5-5-5-5-5-5-5-5-5-5-5-5-5-5-5-5-5-5-5-5-5-5-5-5-5-5-5-5|
E|---2--0--2-----5--4--0--2--2-0--------------------------------------------------------|
                                  | P.M...| | P.M.......... | | P.M...| | P.M...........|
        b           b    
E|-----10(11)-10-9-10(12)--------------------------------19p21-19-17-19-16--------------|
B|-------------------------------------------------------------------------17-19~-------|
G|--------------------------------------------------------4p6--4--2--4--1---------------|
D|---6--7-----------9-------------------------------------------------------2--4~-------|
A|---4--5-----------7--------4-------------4-2-4----2--------------------------4--------|
E|---------------------------2-2-2-2-2-2-2-2-0-2----0--------------------------2--------|
                              | P.M...... |
Related for Brave New World tab