Song name
# A B C D E F G H I J K L M N O P Q R S T U V W X Y Z

Ironfire - Alone In The Dark tab

Ironfire - Alone in The Dark         INTRO
In The Album Revenge
                        Repeat once
eb)|--------------------------------------------------------------------|
Bb)|--------------------------------------------------------------------|
Gb)|---------0----------0----------0-----------0------------------------|
Db)|-------2---2------2---2------2---2-------2---2----------------------|
Ab)|----2-----------2----------2-----------2----------------------------|
Eb)|-0------------1----------0-----------3------------------------------|

                         Repeat once
eb)|---------------------------------------------------------------|
Bb)|-12---10---12--13--12--10--12--10--8--10--8--7-----------------|
Gb)|---------------------------------------------------------------|
Db)|---------------------------------------------------------------|
Ab)|---------------------------------------------------------------|
Eb)|---------------------------------------------------------------|
Tap to rate this tab
# A B C D E F G H I J K L M N O P Q R S T U V W X Y Z