Song name
# A B C D E F G H I J K L M N O P Q R S T U V W X Y Z

Irrational - Goodbye Forever tab

Irrational - Goodbye Forever CGCFAD


Love this song! Since there are no tabs I decided to tab it.
This is my first guitar tab.
I'm not sure if the chorus is correct but the rest is.


Intro

D----------------------------|
A--10--10-10-8-8-8--11-11-10-|
F-7--7--------7---7---7------|
C----------------------------|
G----------------------------|
C----------------------------|


Verse

D---------- -----------|
A---------- -----------|
F---------- -----------|
C-12--15-14 ----15-14--|
G---------- -----------|
C---------- -0-0-------|


Chorus

D----------------------------|
A----------------------------|
F-----15--15 15 15 12 15-----|
C-0-0-x---x--x--x--x--x------|
G-0-0-12--12 12 12 10 12-----|
C-0-0------------------------|


Breakdown
D----------------------|
A----------------------|
F----------------------|
C-023-023-02-023-02353-|
G-023-023-02-023-02353-|
C-023-023-02-023-02353-|
Tap to rate this tab
# A B C D E F G H I J K L M N O P Q R S T U V W X Y Z