Song name
# A B C D E F G H I J K L M N O P Q R S T U V W X Y Z

Isley Brothers - Footsteps In The Dark tab

-------------------------------------------------------------------------------
     Footsteps In The Dark- The Isley Brothers
-------------------------------------------------------------------------------
Tabbed by:Adam Stefanyk


Tuning:Standard

e|- 7---------------------------9---------7---------------------------------------|
B|--7--------7--------------------------------------7-----------------------------|
G|--7----------------7-----------------------------------------7------------------|
D|--------------------------------------------------------------------------------|
A|--------------------------------------------------------------------------------|
E|--------------------------------------------------------------------------------|

e|------------------------------------------------------------------------|
B|-----------------------------------------------------------------1------|
G|-----2--------4p2-------1-------2-----1---------------------2--------1--|
D|-------------------------------------------------4----------------------|
A|------------------------------------------------------------------------|
E|------------------------------------------------------------------------|

| /  slide up
| \  slide down
| h  hammer-on
| p  pull-off
| ~  vibrato
| +  harmonic
| x  Mute note
===============================================================================
Tap to rate this tab
# A B C D E F G H I J K L M N O P Q R S T U V W X Y Z