Song name
# A B C D E F G H I J K L M N O P Q R S T U V W X Y Z

Itchy Poopzkid - Living tab

-------------------------------------------------------------------------------
			     The Living - Itchy Poopzkid
-------------------------------------------------------------------------------
Tabbed by: Rodrockz


Tuning: standard

Inttro/Verse:

Guitar 1:

e|--------------------------------------------------|
B|--------------------------------------------------|
G|---8---6---------6--------------------------------|
D|------------8---------8----6-----8----6-----------| 3x
A|--------------------------------------------9-----|
E|--------------------------------------------------|

e|------------------------|
B|------------------------|
G|---8---6---------8-8-8--|
D|------------8----8-8-8--| 1x
A|--------------6--6-6-6--|
E|------------------------|


Guitar 2:

e|-------------------------------------|
B|-------------------------------------|
G|--8-----11---------4----6-----8-8-8--|
D|--8-----11----6----4----6-----8-8-8--|
A|--6-----9-----6----2----4-----6-6-6--|
E|--------------4----------------------|


Pre-Chorus/Bridge:

e|-------------------|
B|-------------------|
G|-------6-------4---| 3x
D|---6---6---4---4---|
A|---6---4---4---2---|
E|---4-------2-------|


Chorus:

e|-------------------------|
B|-------------------------|
G|----8----11-------4---6--| 2x
D|----8----11---6---4---6--|
A|----6----9----6---2---4--|
E|--------------4----------|


| /  slide up
| \  slide down
| h  hammer-on
| p  pull-off
| ~  vibrato
| +  harmonic
| x  Mute note
===============================================================================
Tap to rate this tab
# A B C D E F G H I J K L M N O P Q R S T U V W X Y Z