Guitaretab - guitar tabs
Song name
# A B C D E F G H I J K L M N O P Q R S T U V W X Y Z

J-kwon - You And Me tab

Hi :) I've figured out the intro & part of the verse for Declan's song "You and Me." I'm 
to figure more out...

Capo 2

e-----------0----|
B-------------0--|
G----0-----------|
D---0-----0------|
A--2-----2-------|
E-0-----0--------|
[ Tab from: http://www.guitaretab.com/j/j-kwon/132708.html ]
e----------------------0--|
B------------------------0|
G-------0--------------2--|
D-----0---0----------2---2|
A---2-------0------2------|
E-0--------------2--------|
         Cuz everything's right


And, yeah, that's all I figured out! lol
Sorry it's so short!!
Advertisement will be closed in 10 seconds