Song name
# A B C D E F G H I J K L M N O P Q R S T U V W X Y Z

Jack Johnson - Banna Pancake tab

I had no clue (until now) how to make tabs on the computer, so I just used a random tab, 
made the beginning to banana pancakes. I don’t really agree with any of the other intros.

        > = slide up from anywhere
        < = slide down from anywhere
        H = hammer on
        P = pull off
        X = muted

E------------------------5---------------------------3-----------------|
B------------------------5---------------------------3-----------------|
G------------------------5---------------------------4-----------------|
D---------0---------------------------0--------------------------------|
A----------------------------------------------------------------------|
E------>7---7<5-3-0-5-------------->7---7<5-3-0-3----------------------|

E--------------------5---------------------------3----------------x2--2----|
B--------------------5---------------------------3----------------x3--3----|
G--------------------5---------------------------4----------------x3--3----|
D-----0---------------------------0----------------------------------------|
A-------7<5----------------------------------------------------------------|
E-->7-------3-0-5-------------->7---7<5-3-0-5------------------------------|
   Can’t you………..rainin’
Tap to rate this tab
# A B C D E F G H I J K L M N O P Q R S T U V W X Y Z