Guitaretab - guitar tabs
Song name
# A B C D E F G H I J K L M N O P Q R S T U V W X Y Z

Jack Johnson - Bubble Toes tab

-------------------------------------------------------------------------------
			     SONG NAME - Band Name
-------------------------------------------------------------------------------
Tabbed by: Sabeel Siddiqi	
Email:Pakiman3313@yahoo.com

Email me if you have questions
Put subject line as Bubbletoes

Listen to the song for timings and patterns

Tuning:Standard

Intro Part 1

e|---------------------------------------|
B|---------------------------------------|
G|---------------------------------------| (x2)
D|-7-x-7---x---9-x-9----x----------------| 
A|-5-x-5-7-x-7-7-x-7-10-x-10-------------|  
E|-------5---5--------8----8-------------|

Intro Part 2
[ Tab from: http://www.guitaretab.com/j/jack-johnson/30727.html ]
e|---------------------------------------|
B|---------------------------------------|
G|---------------------------------------|
D|---x-----x-----x-----------------------|
A|-5-x-5-7-x-7-8-x-8-7-------------------|
E|-3---3-3---3-3---3-3-------------------|

Verse and chorus
   d   
e|-3---3-3-x-3--3-3-3-3--3---3-3--5-5---5-5-5-------| d=Downstroke
B|-3---3-3-x-3--3--3-3-3--5---5-5--7-7---7-7-7-------|
G|-4---4-4-x-4--4--4-4-4--5---5-5--7-7---7-7-7-------|
D|-5---5-5-x-5--5--5-5-5--5---5-5--7-7---7-7-7-------|
A|-5---5-5-x-5--5--5-5-5--3---3-3--5-5---5-5-5-------|
E|-3---3-3-x-3--3--3-3-3--3---3-3--5-5---5-5-5-------|

Solo
e|---------------------------------------------------|
B|---------------------------------------------------|
G|---------------------------------------------------|
D|------------2--22-4-2-0----------------------------|
A|----2-3-5---------------3--------------------------|
E|-3-3------3----------------------------------------|



Related for Bubble Toes tab