Song name
# A B C D E F G H I J K L M N O P Q R S T U V W X Y Z

Jack Johnson - Fall Line tab

                                  Fall Line

this is how Jack and Matt Costa play it before they go into Sunshine on the weekend at the greek dvd


                (capo 1) chords are in relation


e--2-----0---|
B--3-----3---|
G--2-----4---|
D--------5---|
A--------5---|
E--------x---|
   D     G

D
And by the way
You know that hope will make you strange
Make you blink, Make you blink
Make you sink
                 G
It will make you afraid of change
Enough to blame the box with the view of the world
                   D
And the walls that fill the frame
I turn it up
But then I turn it off
Because I can't stand
When they start to talk about
    G
The hurting and killing
Whose shoes are we filling
The damage and ruin
And the things that we're doing Gotta
D
We gotta stop
We gotta turn it all off
We gotta rewind
Start it up again
   A                                                                  G
e--x------------------------x---------x---------------------x---------0-|
B--x------------------------x---------x---------------------x---------3-|
G--2------------------------2---------2---------------------2---------4-|
D--2------------------------4---------5---------------------4---------5-|
A---------------------------------------------------------------------5-|
E---------------------------------------------------------------------x-|
Because we fell across the fall line    Ain't there nothing sacred any more
G
Nah nah nah nah nah nah nah nah

e--2-----0---|
B--3-----3---|
G--2-----4---|  (4X)
D--------5---|
A--------5---|
E--------x---|
   D     G

D
Somebody saw him jump
Yeah, but nobody saw him slip
I guess he lost a lot a hope
And then he lost a grip
             G
And now he's lying in the freeway
In the middle of this mess
Guess we lost another one, just like the other one
D
Optimistic, hypocrite that didn't have the nerve to quit
The things that kept him wanted more
'Til he finally reached the core
A                                                               G
e--x------------------x---------x---------------------x---------0-|
B--x------------------x---------x---------------------x---------3-|
G--2------------------2---------2---------------------2---------4-|
D--2------------------4---------5---------------------4---------5-|
A---------------------------------------------------------------5-|
E---------------------------------------------------------------x-|
He fell across the fall line     Ain't there nothing sacred anymore
G
Nah nah nah nah nah nah nah nah

e--2-----0---|
B--3-----3---|
G--2-----4---|  (4X)
D--------5---|
A--------5---|
E--------x---|
   D     G
(end on D)
Tap to rate this tab
# A B C D E F G H I J K L M N O P Q R S T U V W X Y Z